Oops, an error
Loading. Please wait.

Baby Dont Sweat Tab

4,848 views 12 this week
7 commentsread comments
1 2 3 4 5
accurate
x 6
add to favorites
launch autoscroll
font size
0
reset
how to read this tab
guitar tuner
Autoscroll
slow
fast
+/-
esc
set tempo
stop
Help us to improve Ultimate-Guitar.com Take our survey!
×
-----------------------------------------------------------------------------
                             Baby Don't Sweat - The Cribs
-----------------------------------------------------------------------------
Tabbed by: Gerald
Email: mwoit@lycos.com

Tuning: Standard

INTRO

e|-----------------------------------------------------------------|
B|-----------------------------------------------------------------|
G|-------1-1-1-1-1-1--------5-----5------------6-----6-------------|
D|-------2-2-2-2-2-2------6---6-----6--------7---7-----7-----------|
A|-------2-2-2-2-2-2----6-------6-----6----7-------7-----7---------|
E|--12\0-0-0-0-0-0-0--4------------------5-------------------------|

e|--------------------------------------------------------4--------|
B|-----------------------------------------------------------------|
G|--------8-----8-----------1-1-1-1-1-1-1-1---------5--------------|
D|------9---9-----9---------2-2-2-2-2-2-2-2-------6---6-----6------|
A|----9-------9-----9-------2-2-2-2-2-2-2-2-----6-------6-----6----|
E|--7--------------------12/0-0-0-0-0-0-0-0---4--------------------|

e|--------------5--------------------------------------------------|
B|-----------------------------------------------------------------|
G|-------6--------------8-8-8-8-8----------------------------------|
D|-----7---7-------7----9-9-9-9-9----------------------------------|
A|---7-------7-------7--9-9-9-9-9----------------------------------|
E|-5--------------------7-7-7-7-7----------------------------------|

VERSE

e|-----------------------------------------------------------------|
B|-----------------------------------------------------------------|
G|-------1-1-1-1-1-1-1-1-1-1-1-1-1-1-5-5-5-5-5-5-5-5-5-5-5-5-5-----|
D|-------2-2-2-2-2-2-2-2-2-2-2-2-2-2-6-6-6-6-6-6-6-6-6-6-6-6-6-----|
A|-------2-2-2-2-2-2-2-2-2-2-2-2-2-2-6-6-6-6-6-6-6-6-6-6-6-6-6-----|
E|-12/0--0-0-0-0-0-0-0-0-0-0-0-0-0-0-4-4-4-4-4-4-4-4-4-4-4-4-4-----|

e|-----------------------------------------------------------------|
B|-----------------------------------------------------------------|
G|-6-6-6-6-6-6-6-6-6-6-6-8-8-8-8-8-8-8-8-8-8-8-8-8-8---------------|
D|-7-7-7-7-7-7-7-7-7-7-7-9-9-9-9-9-9-9-9-9-9-9-9-9-9---------------|
A|-7-7-7-7-7-7-7-7-7-7-7-9-9-9-9-9-9-9-9-9-9-9-9-9-9---------------|
E|-5-5-5-5-5-5-5-5-5-5-5-7-7-7-7-7-7-7-7-7-7-7-7-7-7---------------|


e|-----------------------------------------------------------------|
B|-----------------------------------------------------------------|
G|-------1-1-1-1-1-1-1-1-1-1-1-1-1-1-5-5-5-5-5-5-5-5-5-5-5-5-5-----|
D|-------2-2-2-2-2-2-2-2-2-2-2-2-2-2-6-6-6-6-6-6-6-6-6-6-6-6-6-----|
A|-------2-2-2-2-2-2-2-2-2-2-2-2-2-2-6-6-6-6-6-6-6-6-6-6-6-6-6-----|
E|-12/0--0-0-0-0-0-0-0-0-0-0-0-0-0-0-4-4-4-4-4-4-4-4-4-4-4-4-4-----|

e|-----------------------------------------------------------------|
B|-----------------------------------------------------------------|
G|-6-6-6-6-6-6-6-6-6-6-6-8-8-8-8-8-8-8-8-8-8-8-8-8-8---------------|
D|-7-7-7-7-7-7-7-7-7-7-7-9-9-9-9-9-9-9-9-9-9-9-9-9-9---------------|
A|-7-7-7-7-7-7-7-7-7-7-7-9-9-9-9-9-9-9-9-9-9-9-9-9-9---------------|
E|-5-5-5-5-5-5-5-5-5-5-5-7-7-7-7-7-7-7-7-7-7-7-7-7-7---------------|

CHORUS

e|-----------------------------------------------------------------|
B|-----------------------------------------------------------------|
G|-----------------------------------------------------------------|
D|--------9-7-------------9-7--------------------------------------|
A|--11-11-----11-11-11-11-----11-11-11-11-11-11-11-11-9------------|
E|-----------------------------------------------------------------|

e|-----------------------------------------------------------------|
B|-7-7-7-7-7-7-9-9-7-7-7-7-7-7-9-9---------------------------------|
G|-9-9-9-9-9-9-9-9-9-9-9-9-9-9-9-9---------------------------------|
D|-7-7-7-7-7-7-7-7-7-7-7-7-7-7-7-7---------------------------------|
A|-7-7-7-7-7-7-7-7-7-7-7-7-7-7-7-7---------------------------------|
E|-----------------------------------------------------------------|


| /  slide up
| \  slide down
| h  hammer-on
| p  pull-off
| ~  vibrato
| +  harmonic
| x  Mute note
=============================================================================
Suggest correction
comments
print report bad tab
7 comments total. Showing first comments.
0 reply
chrissya8 10 wrote on August 28 2006, 08:54 am

good tab,. but on the chorus. isnt is :

E|-11-11-11----11-11-11--11-11-11-11-9
A|---------7-9--------7-9-------------

i think you got the 7 and 9 mixed up. otherwise good tab

0 reply
bitcrusherrr 52 wrote on December 7 2007, 10:19 am

e|-----------------------------------------------------------------|
B|-7-7-7-7-7-7-9-9-7-7-7-7-7-7-9-9----------------
-----------------|
G|-9-9-9-9-9-9-9-9-9-9-9-9-9-9-9-9---------------------------------|
D|-7-7-7-7-7-7-7-7-7-7-7-7-7-7
-7-7---------------------------------|
A|-7-7-7-7-7-7-7-7-7-7-7-7-7-7-7-7---------------------------------|
E|--------
---------------------------------------------------------|
the other time it does
this...

e|-----------------------------------------------------------------|
B|-7-7-7-7-7-7-9-9-7-7-7-7-7-7-9-9-8-7-
6-6-6-6-6-6-6-5-4-2-2-2-2-2-|
G|-9-9-9-9-9-9-9-9-9-9-9-9-9-9-9-9-8-7-6-6-6-6-6-6-6-5-4-2-2-2-2-2-|
D|-7-7-7-7-7-7-7-7-
7-7-7-7-7-7-7-7-8-7-6-6-6-6-6-6-6-5-4-2-2-2-2-2-|
A|-7-7-7-7-7-7-7-7-7-7-7-7-7-7-7-7-6-5-4-4-4-4-4-4-4-3-2-0-0-0-0-0-|

E|-----------------------------------------------------------------|

but the tiwddly bit after im not so sure...
summat on the G string going up the fret board i think.

0 reply
bitcrusherrr 52 wrote on December 7 2007, 10:19 am

ah shit.

guest
You may want to rate the tab now too:
select rating
Wanna post a correction for this tab? Suggest correction