Oops, an error
Loading. Please wait.

Baby Dont Sweat Tab

version 2
version 2

Whole song

  • ver 2 new
    This is a more complete tab of this song than is currently available.
10 views 10 this week
no commentswrite comment
1 2 3 4 5
3 more votes to show rating
add to favorites
launch autoscroll
font size
0
reset
how to read this tab
guitar tuner
Autoscroll
slow
fast
+/-
esc
set tempo
stop
Help us to improve Ultimate-Guitar.com Take our survey!
×
Author
Difficulty
About this tab version
This is a more complete tab of this song than is currently available. Was this info helpful? Yes No
[Intro]
e|---------------------------------------------------------------------------------------------|
B|---------------------------------------------------------------------------------------------|
G|--------------------------------5-------5----------------6-------6----------------8-------8--|
D|------2-2--2--2-2-2-2-2-----6-----6---6---6---6------7-----7---7---7---7------9-----9---9---9|
A|------2-2--2--2-2-2-2-2---6---6-----6-------6------7---7-----7-------7------9---9-----9------|
E|-12\0-------------------4------------------------5------------------------7------------------|

e|--------------------------------------------------------------------------7--7--7--7--7------|
B|--------------------------------------------------------------------------7--7--7--7--7------|
G|--------------------------------5-------5----------------6-------6--------8--8--8--8--8------|
D|------2-2--2--2-2-2-2-2-----6-----6---6---6---6------7-----7---7---7---7--9--9--9--9--9------|
A|------2-2--2--2-2-2-2-2---6---6-----6-------6------7---7-----7-------7----9--9--9--9--9------|
E|-12\0-------------------4------------------------5------------------------7--7--7--7--7------|

[Verse]
e|---------------------------------4-4-4-4-4-4-4-4-4-4-4-4-4-4-4-4-5-5-5-5-5-5-5-5-5-5-5-5-5-5-5-5-|
B|---------------------------------4-4-4-4-4-4-4-4-4-4-4-4-4-4-4-4-5-5-5-5-5-5-5-5-5-5-5-5-5-5-5-5-|
G|(1-1-1-1-1-1-1-1-1-1-1-1-1-1-1-1)5-5-5-5-5-5-5-5-5-5-5-5-5-5-5-5-6-6-6-6-6-6-6-6-6-6-6-6-6-6-6-6-|
D|-2-2-2-2-2-2-2-2-2-2-2-2-2-2-2-2-6-6-6-6-6-6-6-6-6-6-6-6-6-6-6-6-7-7-7-7-7-7-7-7-7-7-7-7-7-7-7-7-|
A|-2-2-2-2-2-2-2-2-2-2-2-2-2-2-2-2-6-6-6-6-6-6-6-6-6-6-6-6-6-6-6-6-7-7-7-7-7-7-7-7-7-7-7-7-7-7-7-7-|
E|---------------------------------4-4-4-4-4-4-4-4-4-4-4-4-4-4-4-4-5-5-5-5-5-5-5-5-5-5-5-5-5-5-5-5-|

e|-7-7-7-7-7-7-7-7-7-7-7-7-7-7---------------------------------4-4-4-4-4-4-4-4-4-4-4-4-4-4-4-4-|
B|-7-7-7-7-7-7-7-7-7-7-7-7-7-7---------------------------------4-4-4-4-4-4-4-4-4-4-4-4-4-4-4-4-|
G|-8-8-8-8-8-8-8-8-8-8-8-8-8-8(1-1-1-1-1-1-1-1-1-1-1-1-1-1-1-1)5-5-5-5-5-5-5-5-5-5-5-5-5-5-5-5-|
D|-9-9-9-9-9-9-9-9-9-9-9-9-9-9\2-2-2-2-2-2-2-2-2-2-2-2-2-2-2-2-6-6-6-6-6-6-6-6-6-6-6-6-6-6-6-6-|
A|-9-9-9-9-9-9-9-9-9-9-9-9-9-9\2-2-2-2-2-2-2-2-2-2-2-2-2-2-2-2-6-6-6-6-6-6-6-6-6-6-6-6-6-6-6-6-|
E|-7-7-7-7-7-7-7-7-7-7-7-7-7-7---------------------------------4-4-4-4-4-4-4-4-4-4-4-4-4-4-4-4-|

e|-5-5-5-5-5-5-5-5-5-5-5-5-5-5-5-5-7-7-7-7-7-7-7-7-7-7-7-7-7-7-7-7-|
B|-5-5-5-5-5-5-5-5-5-5-5-5-5-5-5-5-7-7-7-7-7-7-7-7-7-7-7-7-7-7-7-7-|
G|-6-6-6-6-6-6-6-6-6-6-6-6-6-6-6-6-8-8-8-8-8-8-8-8-8-8-8-8-8-8-8-8-|
D|-7-7-7-7-7-7-7-7-7-7-7-7-7-7-7-7-9-9-9-9-9-9-9-9-9-9-9-9-9-9-9-9-|
A|-7-7-7-7-7-7-7-7-7-7-7-7-7-7-7-7-9-9-9-9-9-9-9-9-9-9-9-9-9-9-9-9-|
E|-5-5-5-5-5-5-5-5-5-5-5-5-5-5-5-5-7-7-7-7-7-7-7-7-7-7-7-7-7-7-7-7-|

[Chorus]
e|------------------------------------------------------|
B|------------------------------------------------------|
G|------------------------------------------------------|
D|-6-6-6-7-9--6-6--6-7-9--6-6-6-6-6-6-6-6-4--4-4-4--4-4-| x2 
A|------------------------------------------------------|
E|------------------------------------------------------|

e|-----------------------------------------------/----|
B|--------------------9-9-9----------------------/----|
G|-9-9--9-9-9--9-9-9--9-9-9--9-9-9--9-9-9--9-9---/----|
D|-x-x--x-x-x--x-x-x--x-x-x--x-x-x--x-x-x--x-x--------|
A|-7-7--7-7-7--7-7-7--7-7-7--7-7-7--7-7-7--7-7--------|
E|----------------------------------------------------|

[Verse 2]
e|---------------------------------4-4-4-4-4-4-4-4-4-4-4-4-4-4-4-4-5-5-5-5-5-5-5-5-5-5-5-5-5-5-5-5-|
B|---------------------------------4-4-4-4-4-4-4-4-4-4-4-4-4-4-4-4-5-5-5-5-5-5-5-5-5-5-5-5-5-5-5-5-|
G|(1-1-1-1-1-1-1-1-1-1-1-1-1-1-1-1)5-5-5-5-5-5-5-5-5-5-5-5-5-5-5-5-6-6-6-6-6-6-6-6-6-6-6-6-6-6-6-6-|
D|-2-2-2-2-2-2-2-2-2-2-2-2-2-2-2-2-6-6-6-6-6-6-6-6-6-6-6-6-6-6-6-6-7-7-7-7-7-7-7-7-7-7-7-7-7-7-7-7-|
A|-2-2-2-2-2-2-2-2-2-2-2-2-2-2-2-2-6-6-6-6-6-6-6-6-6-6-6-6-6-6-6-6-7-7-7-7-7-7-7-7-7-7-7-7-7-7-7-7-|
E|---------------------------------4-4-4-4-4-4-4-4-4-4-4-4-4-4-4-4-5-5-5-5-5-5-5-5-5-5-5-5-5-5-5-5-|

e|-7-7-7-7-7-7-7-7-7-7-7-7-7-7---------------------------------4-4-4-4-4-4-4-4-4-4-4-4-4-4-4-4-|
B|-7-7-7-7-7-7-7-7-7-7-7-7-7-7---------------------------------4-4-4-4-4-4-4-4-4-4-4-4-4-4-4-4-|
G|-8-8-8-8-8-8-8-8-8-8-8-8-8-8(1-1-1-1-1-1-1-1-1-1-1-1-1-1-1-1)5-5-5-5-5-5-5-5-5-5-5-5-5-5-5-5-|
D|-9-9-9-9-9-9-9-9-9-9-9-9-9-9\2-2-2-2-2-2-2-2-2-2-2-2-2-2-2-2-6-6-6-6-6-6-6-6-6-6-6-6-6-6-6-6-|
A|-9-9-9-9-9-9-9-9-9-9-9-9-9-9\2-2-2-2-2-2-2-2-2-2-2-2-2-2-2-2-6-6-6-6-6-6-6-6-6-6-6-6-6-6-6-6-|
E|-7-7-7-7-7-7-7-7-7-7-7-7-7-7---------------------------------4-4-4-4-4-4-4-4-4-4-4-4-4-4-4-4-|

e|-5-5-5-5-5-5-5-5-5-5-5-5-5-5-5-5-7-7-7-7-7-7-7-7-7-7-7-7-7-7-7-7-|
B|-5-5-5-5-5-5-5-5-5-5-5-5-5-5-5-5-7-7-7-7-7-7-7-7-7-7-7-7-7-7-7-7-|
G|-6-6-6-6-6-6-6-6-6-6-6-6-6-6-6-6-8-8-8-8-8-8-8-8-8-8-8-8-8-8-8-8-|
D|-7-7-7-7-7-7-7-7-7-7-7-7-7-7-7-7-9-9-9-9-9-9-9-9-9-9-9-9-9-9-9-9-|
A|-7-7-7-7-7-7-7-7-7-7-7-7-7-7-7-7-9-9-9-9-9-9-9-9-9-9-9-9-9-9-9-9-|
E|-5-5-5-5-5-5-5-5-5-5-5-5-5-5-5-5-7-7-7-7-7-7-7-7-7-7-7-7-7-7-7-7-|

[Chorus 2]
e|------------------------------------------------------|
B|------------------------------------------------------|
G|------------------------------------------------------|
D|-6-6-6-7-9--6-6--6-7-9--6-6-6-6-6-6-6-6-4--4-4-4--4-4-| x2 
A|------------------------------------------------------|
E|------------------------------------------------------|

e|------------------------------------------------------|
B|--------------------9-9-9--------------------9--9-9-9-|
G|-9-9--9-9-9--9-9-9--9-9-9--9-9-9--9-9-9--9-9-9--9-9-9-|
D|-x-x--x-x-x--x-x-x--x-x-x--x-x-x--x-x-x--x-x-x--x-x-x-|
A|-7-7--7-7-7--7-7-7--7-7-7--7-7-7--7-7-7--7-7-7--7-7-7-|
E|------------------------------------------------------|

e|------------------------------------------------------|
B|------------------------------------------------------|
G|------------------------------------------------------|
D|-6-6-6-7-9--6-6--6-7-9--6-6-6-6-6-6-6-6-4--4-4-4--4-4-| x2 
A|------------------------------------------------------|
E|------------------------------------------------------|

[Break]
e|---------------------------------------------------------------------------------------------------------|
B|--------------------9-9-9--------------------------------------------------------------------------------|
G|-9-9--9-9-9--9-9-9--9-9-9--9-9-9--9-9-9--9-9-9--9-9-8-7-6--6-6-6-6-6-6-6-6-6-6-6-6-5-4-2--2-2-2-2-2-2-2-2|
D|-x-x--x-x-x--x-x-x--x-x-x--x-x-x--x-x-x--x-x-x--x-x-x-x-x--x-x-x-x-x-x-x-x-x-x-x-x-x-x-2--2-2-2-2-2-2-2-2|
A|-7-7--7-7-7--7-7-7--7-7-7--7-7-7--7-7-7--7-7-7--7-7-6-5-4--4-4-4-4-4-4-4-4-4-4-4-4-3-2-2--2-2-2-2-2-2-2-2|
E|---------------------------------------------------------------------------------------------------------|

e|-----------------------------------------------------------------------------------|
B|-----------------------------------------------------------------------------------|
G|-2-2-2-2-2-2-2-2------5---5---5/7-7---7---7---7/9-9---9---10---10---11---11---13/--|
D|-2-2-2-2-2-2-2-2--4-4---4---4-------6---6---6-------8---8----8----8----8----8------|
A|-2-2-2-2-2-2-2-2-------------------------------------------------------------------|
E|-----------------------------------------------------------------------------------|

[Verse 3]
e|---------------------------------4-4-4-4-4-4-4-4-4-4-4-4-4-4-4-4-5-5-5-5-5-5-5-5-5-5-5-5-5-5-5-5-|
B|---------------------------------4-4-4-4-4-4-4-4-4-4-4-4-4-4-4-4-5-5-5-5-5-5-5-5-5-5-5-5-5-5-5-5-|
G|(1-1-1-1-1-1-1-1-1-1-1-1-1-1-1-1)5-5-5-5-5-5-5-5-5-5-5-5-5-5-5-5-6-6-6-6-6-6-6-6-6-6-6-6-6-6-6-6-|
D|-2-2-2-2-2-2-2-2-2-2-2-2-2-2-2-2-6-6-6-6-6-6-6-6-6-6-6-6-6-6-6-6-7-7-7-7-7-7-7-7-7-7-7-7-7-7-7-7-|
A|-2-2-2-2-2-2-2-2-2-2-2-2-2-2-2-2-6-6-6-6-6-6-6-6-6-6-6-6-6-6-6-6-7-7-7-7-7-7-7-7-7-7-7-7-7-7-7-7-|
E|---------------------------------4-4-4-4-4-4-4-4-4-4-4-4-4-4-4-4-5-5-5-5-5-5-5-5-5-5-5-5-5-5-5-5-|

e|-7-7-7-7-7-7-7-7-7-7-7-7-7-7---------------------------------4-4-4-4-4-4-4-4-4-4-4-4-4-4-4-4-|
B|-7-7-7-7-7-7-7-7-7-7-7-7-7-7---------------------------------4-4-4-4-4-4-4-4-4-4-4-4-4-4-4-4-|
G|-8-8-8-8-8-8-8-8-8-8-8-8-8-8(1-1-1-1-1-1-1-1-1-1-1-1-1-1-1-1)5-5-5-5-5-5-5-5-5-5-5-5-5-5-5-5-|
D|-9-9-9-9-9-9-9-9-9-9-9-9-9-9\2-2-2-2-2-2-2-2-2-2-2-2-2-2-2-2-6-6-6-6-6-6-6-6-6-6-6-6-6-6-6-6-|
A|-9-9-9-9-9-9-9-9-9-9-9-9-9-9\2-2-2-2-2-2-2-2-2-2-2-2-2-2-2-2-6-6-6-6-6-6-6-6-6-6-6-6-6-6-6-6-|
E|-7-7-7-7-7-7-7-7-7-7-7-7-7-7---------------------------------4-4-4-4-4-4-4-4-4-4-4-4-4-4-4-4-|

e|-5-5-5-5-5-5-5-5-5-5-5-5-5-5-5-5-7-7-7-7-7-7-7-7-7-7-7-7-7-7-7-7-|
B|-5-5-5-5-5-5-5-5-5-5-5-5-5-5-5-5-7-7-7-7-7-7-7-7-7-7-7-7-7-7-7-7-|
G|-6-6-6-6-6-6-6-6-6-6-6-6-6-6-6-6-8-8-8-8-8-8-8-8-8-8-8-8-8-8-8-8-|
D|-7-7-7-7-7-7-7-7-7-7-7-7-7-7-7-7-9-9-9-9-9-9-9-9-9-9-9-9-9-9-9-9-|
A|-7-7-7-7-7-7-7-7-7-7-7-7-7-7-7-7-9-9-9-9-9-9-9-9-9-9-9-9-9-9-9-9-|
E|-5-5-5-5-5-5-5-5-5-5-5-5-5-5-5-5-7-7-7-7-7-7-7-7-7-7-7-7-7-7-7-7-|

[Outro]
e|-----------7~--|
B|------7~---9~--|
G|------9~---8~--|
D|-6~---9~---9~--|
A|---------------|
E|---------------|


************************************

| ()  Optional note
| x   Dead note
| /   Slide up
| \   Slide down
| ~   Vibrato

************************************
Suggest correction
Give kudos to tab author, rate the tab!
1 2 3 4 5
comments
print report bad tab
guest
You may want to rate the tab now too:
select rating
Wanna post a correction for this tab? Suggest correction