Oops, an error
Loading. Please wait.

Cheat On Me Tab

version 2
version 2

Whole song

15,450 views 9 this week
4 commentsread comments
1 2 3 4 5
excellent!
x 5
add to favorites
launch autoscroll
font size
0
reset
how to read this tab
guitar tuner
Autoscroll
slow
fast
+/-
esc
set tempo
stop
Help us to improve Ultimate-Guitar.com Take our survey!
×
Author
Difficulty
Capo
patch17 3,092
novice
4th fret
Brilliant new single from Wakefield's finest :)

Guitar 1 - Ryan Jarman (Capo 4)

All relative to capo :)

Intro - This should correct, listen for rhythm
e|--------0---0------------0---0---0---|
B|--1p0-3--3---3-----1p0-3----3---3-3--|
G|0----------5--5--0---------5---5---5-|
D|-------------------------------------|
A|-------------------------------------|
E|-------------------------------------|x2

e|0h1----------1---1---0h1-------3---3---|
B|----1-----1---1---1-----1----1--3---3--|
G|------0h2------2---2------0h2----4---4-|
D|---------------------------------------|
A|---------------------------------------|
E|---------------------------------------|x1

Verse

Join in on "But things go together"
e|----0-000-3-0000----------0---0---|
B|--1-1-111-1-1111----3-333--3---3--|
G|2-----------------4-4-444---5---5-|
D|-----------------5----------------|
A|----------------------------------|
E|----------------------------------|

e|----0-000-3-0000-------------------|
B|--1-1-111-1-1111-----3-333-5p3-1p0-|
G|2------------------4-4-444-5-5-0-0-|
D|------------------5----------------|
A|-----------------------------------|
E|-----------------------------------|

Chorus is same as Intro, just played through twice

Verse 2 same as Verse 1 apart from last bit
e|----0-000-3-0000------------------------|
B|--1-1-111-1-1111----3-333-3h5p3-5/3/1/0-|
G|2-----------------4-4-444---------------|
D|-----------------5----------------------|
A|----------------------------------------|
E|----------------------------------------|

Chorus again

Outro
e|0-000-011----|
B|1-111-011----|
G|2-222-022----|
D|2-222-033----|
A|0-000-033-22-|
E|------011-22-|

Guitar 2 - Jonny Marr

All relative to nut

Intro - Miss out first part of phrase on the 1st 
time you play this riff
e|------------|-------|
B|------------|-------|
G|--9-------9-|8/11/6-|
D|----6/7/9---|-------|
A|7-----------|-------|
E|------------|-------|x2

e|55-5-55-55--55-5-55-77-|
B|55-5-55-55--55-5-55-77-|
G|-----------------------|
D|-----------------------|
A|-----------------------|
E|-----------------------|

Verse - This is the basic part, but Jonny messes around 
with the rhythm a bit, so feel free to do the same :)

e|44x4x44444x44x4x44x4444-|
B|55x5x55444x55x5x55x4545-|
G|66x6x66444x66x6x66x4646-|
D|------------------------|
A|------------------------|
E|------------------------|x3

e|44x-45-7-9-9-9--4-4-44-444-------|
B|55x-57-9-101010-4-5-55-555-4b5r4-|
G|66x-6-----------6-6-66-666-------|
D|---------------------------------|
A|---------------------------------|
E|---------------------------------|

"But things go together"

e|-4---------2---|
B|--5---------4--|
G|6--6------4--4-|
D|---------------|
A|---------------|
E|---------------|x2

Chorus 
e|----------------------------------------4-2---------|
B|----------------------------------------4-2-5h7p5-4-|
G|--9-------9--8/11/6~----9-------9--8/11-----4-4-4-4-|
D|----6/7-9-----------------6/7-9---------------------|
A|7---------------------7-----------------------------|
E|----------------------------------------------------|

e|55-5-55-55--55-5-55-77-|
B|55-5-55-55--55-5-55-77-|
G|-----------------------|
D|-----------------------|
A|-----------------------|
E|-----------------------|

Verse 2
e|44x-4-5-7-9-9-9--4-4-222222-|
B|55x-5-7-9-101010-5-5-444454-|
G|66x-6------------6-6-444444-|
D|----------------------------|
A|----------------------------|
E|----------------------------|x2

"But things go together"

e|-4-----2-----4-----2---|
B|--5-----4-----5-----4--|
G|6--6--4--4--6--6--4--4-|
D|-----------------------|
A|-----------------------|
E|-----------------------|

Chorus

Solo
Just in case its confusing, the r8 means play the 8 while bent and 
as you play it, un bend it back to normal
e|-----------------------------------------------------|
B|-------9------------9----------9------------9--------|
G|8b9-8b9-r8-88-6~-8b9-r8-88~-8b9-r8-88-6~-8b9-r8-8-8~-|
D|-----------------------------------------------------|
A|-----------------------------------------------------|
E|-----------------------------------------------------|

Thats all
That should be pretty much correct, hope you like it :D
Suggest correction
What's this?
You can suggest a correction to this tab. Community and Mods will review your correction and vote to approve or reject it.
comments
print report bad tab
4 comments total. Showing first comments.
0 reply
PlectrumKev 238 wrote on September 23 2009, 03:13 pm

Sounds really good man! Tab some more Cribs yeah?

0 reply
patch17 3,092 wrote on September 24 2009, 12:36 pm

i'll give it a go when i got some more time, We Were Aborted is next on my list ;) lol

0 reply
High_o 176 wrote on September 29 2009, 02:58 pm

great tab, cheers dude. We share the same skies would be nice :)

guest
You may want to rate the tab now too:
select rating
Please do not post tabs as comments. Select "correction" instead!