Oops, an error
Loading. Please wait.

Chi-Town Tab

1,734 views 3 this week
no commentswrite comment
1 2 3 4 5
accurate
x 3
add to favorites
launch autoscroll
font size
0
reset
how to read this tab
guitar tuner
Tab Pro tools
  • play this tab
  • loop segment
  • change instrument
  • show fretboard
  • metronome
×
Best way to learn
"Chi-town"
Autoscroll
slow
fast
+/-
esc
set tempo
stop
Contributor
Difficulty
novice
Tuning:Standard

First tab, might be a bit off at points due to repetition but you get the idea.

verse

e|---------------------------------------------------------------------------|
B|---------------------------------------------------------------------------|
G|---------------------------------------------------------------------------|
D|---5-5---10-10-10-10-10-10-10-10-10-10-5-5--10-10-10-10-10-10-10-10-10-----|
A|---5-5---10-10-10-10-10-10-10-10-10-10-5-3--10-10-10-10-10-10-10-10-10-----|
E|---3-3---8--8--8--8--8—-8--8-8---8--8—-3-3--8--8--8--8--8--8--8--8--8------|

e|--------------------------------------------------------------------------|
B|--------------------------------------------------------------------------|
G|--------------------------------------------------------------------------|
D|--10-10-10-10-3--3--3--3--3--3--3--3--3--3--3--5--5--10-10-10-10-10-10-10-|
A|--10-10-10-10-3--3--3--3--3--3--3--3--3--3--3--5--5--10-10-10-10-10-10-10-|
E|--8--8--8--8--1--1--1--1--1--1--1--1--1--1--1--3--3--8--8--8--8--8--8--8--|

e|---------------------------------------------------------------------------------|
B|---------------------------------------------------------------------------------|
G|---------------------------------------------------------------------------------|
D|--10-10-10-10--------------------------------------------------------------------|
A|--10-10-10-10-----x2-------------------------------------------------------------|
E|--8--8--8--8---------------------------------------------------------------------|

chorus

e|-------------------------------------------------------------------|
B|-------------------------------------------------------------------|
G|---------------------9-9-9-----------------------------------------|
D|---10-10-10--7-7-7---9-9-9--5-5-5----------------------------------|
A|---10-10-10--7-7-7---7-7-7--5-5-5-----x4 (rhythm changes after 2)--|
E|---8--8--8---5-5-5----------3-3-3----------------------------------|

e|---------------------------------------------------------------------------|
B|---------------------------------------------------------------------------|
G|---------------------------------------------------------------------------|
D|--------------5-5-5-5-5-5-5-5-5-5-5-5-5-5-5-5-5-5-5-5-5-5-5-5-5-5-5-5-5-5--|
A|---(after 4x)-5-5-5-5-5-5-5-5-5-5-5-5-5-5-5-5-5-5-5-5-5-5-5-5-5-5-5-5-5-5--|
E|--------------3-3-3-3-3-3-3-3-3-3-3-3-3-3-3-3-3-3-3-3-3-3-3-3-3-3-3-3-3-3--|

e|----------------------------------------------|
B|----------------------------------------------|
G|----------------------------------------------|
D|--5-5-5-5-5-5-5-5-5-5-5-5-5-5-5-5-5-5-555555--|
A|--5-5-5-5-5-5-5-5-5-5-5-5-5-5-5-5-5-5-555555--|
E|--3-3-3-3-3-3-3-3-3-3-3-3-3-3-3-3-3-3-333333--|
back to verse and chorus
then
solo

e|--------------------------------------------------------------------------|
B|--------------------------------------------------------------------------|
G|------------7b7-brb7755-----7b7-brb7575-7b-7575-5----------7b----577b75---|
D|-----(solo)---------------555----------------------5h7-7\2/5---5-57-------|
A|--------------------------------------------------------------------------|
E|--------------------------------------------------------------------------|

e|---------------------------------------00------------33---33--------------|
B|---------------------------------------11-----33-----55---55--------------|
G|---7b7 brb7755-----7b7b7b-7575-7b7-----22------------55---55--------------|
D|---------------555----------------5-33-33--333--3-------------------------|
A|-------------------------------------------------33---333-----------------|
E|--------------------------------------------------------------------------|


************************************

| /   slide up
| \   slide down
| h   hammer-on
| p   pull-off
| ~   vibrato
| +   harmonic
| x   Mute note
| b   Bend
| pb  Pre-bend
| br  Bend release
| pbr Pre-bend release
| brb Bend release bend
comments
We did not receive enough feedback on this tab! Please rate:
print report bad tab
1 2 3 4 5
I want to post or [tab]
guest
You may want to rate the tab now too:
select rating
Please do not post tabs as comments. Select "correction" instead!