Oops, an error
Loading. Please wait.

Come On Be A No One Tab

9,644 views 3 this week
no commentswrite comment
1 2 3 4 5
x 10
add to favorites
launch autoscroll
font size
0
reset
how to read this tab
guitar tuner
Autoscroll
slow
fast
+/-
esc
set tempo
stop
Help us to improve Ultimate-Guitar.com Take our survey!
×
Author
Tabbed by: Daniel Pearson

Tuning: Standard

Intro

     G      Bm     Em            C     Cm     G

e|---3------2-------7-----7------8------8-----3------------------------------|
B|---3------3-------8-----7------8------8-----3------------------------------|
G|---4------4-------9-----9------9------8-----4------------------------------|
D|---5------4-------9-----9------10-----10----5------------------------------|
A|---5------2-------7-----7------10-----10----5------------------------------|
E|---3------x-------x-----x------8------8-----3---------3\15-15-15-15-15-15--|

Verse

e|---------------------------------------------------------------------------|
B|-----5---3-5----------5-------5------------5-------5-----------------------|
G|-------4-----4----------4-3\4---4-4/3--------5-3\4---4-4/3-----------------|
D|---------------------------------------------------------------------------|
A|---------------------------------------------------------------------------|
E|---------------------------------------------------------------------------|

e|---------------------------------------------------------------------------|
B|---------------------------------------------------------------------------|
G|--1/3-3-3-3-3-3--1/4-4-4-4-4-4--1/3-3-3-3-3-3--1/4-4-4-4-4-4-4-4-4-4-4-4-4-|
D|---------------------------------------------------------------------------|
A|---------------------------------------------------------------------------|
E|---------------------------------------------------------------------------|

Chorus

     G      Bm     Em            C     Cm     G

e|---3------2-------7-----7------8------8-----3---x-x-x----------------------|
B|---3------3-------8-----7------8------8-----3---x-x-x----------------------|
G|---4------4-------9-----9------9------8-----4---x-x-x----------------------|
D|---5------4-------9-----9------10-----10----5---x-x-x----------------------|
A|---5------2-------7-----7------10-----10----5---x-x-x----------------------|
E|---3------x-------x-----x------8------8-----3---x-x-x----------------------|

Verse 2

e|------------------------------------------|
B|------------------------------------------|
G|------------------------------------------|
D|------------------------------------------|
A|----55------------------------------------|
E|-------77-55-33-23------------------------|


e|---------------------------------------------------------------------------|
B|-----5---3-5----------5-------5------------5-------5-----------------------|
G|-------4-----4----------4-3\4---4-4/3--------5-3\4---4-4/3-----------------|
D|---------------------------------------------------------------------------|
A|---------------------------------------------------------------------------|
E|---------------------------------------------------------------------------|

e|---------------------------------------------------------------------------|
B|---------------------------------------------------------------------------|
G|--1/3-3-3-3-3-3--1/4-4-4-4-4-4--1/3-3-3-3-3-3--1/4-4-4-4-4-4-4-4-4-4-4-4-4-|
D|---------------------------------------------------------------------------|
A|---------------------------------------------------------------------------|
E|---------------------------------------------------------------------------|

Chorus

     G      Bm     Em            C     Cm     G

e|---3------2-------7-----7------8------8-----3---x-x-x----------------------|
B|---3------3-------8-----7------8------8-----3---x-x-x----------------------|
G|---4------4-------9-----9------9------8-----4---x-x-x----------------------|
D|---5------4-------9-----9------10-----10----5---x-x-x----------------------|
A|---5------2-------7-----7------10-----10----5---x-x-x----------------------|
E|---3------x-------x-----x------8------8-----3---x-x-x----------------------|

Outro

   C     Cm     G

e|-8------8-----3------------|
B|-8------8-----3------------|
G|-9------8-----4------------|
D|-10-----10----5------------|
A|-10-----10----5------------|
E|-8------8-----3------------|
************************************

| /   slide up
| \   slide down
| h   hammer-on
| p   pull-off
| ~   vibrato
| +   harmonic
| x   Mute note
| b   Bend
| pb  Pre-bend
| br  Bend release
| pbr Pre-bend release
| brb Bend release bend

************************************
Suggest correction
comments
print report bad tab
guest
You may want to rate the tab now too:
select rating
Wanna post a correction for this tab? Suggest correction