Oops, an error
Loading. Please wait.

Direction Tab

version 1
version 1

Solo

Whole song

1,073 views 1 this week
1 commentread comment
1 2 3 4 5
please rate
add to favorites
launch autoscroll
font size
0
reset
how to read this tab
guitar tuner
Tab Pro tools
  • play this tab
  • loop segment
  • change instrument
  • show fretboard
  • metronome
×
Best way to learn
"Direction"
Autoscroll
slow
fast
+/-
esc
set tempo
stop
Contributor
-------------------------------------------------------------------------------
                             direction-the cribs
Tabbed by:danielfisher93
Email:danielfisher93@aol.com


This is the litle solo ryan does at the very end of the song
Tuning:standard
part 1
e|------14--------------------14--15--14--------------|
B|-15-15--15-17-15-16-15-17-15--15--15--15------------|
G|----------------------------------------------------|
D|----------------------------------------------------|
A|----------------------------------------------------|
E|----------------------------------------------------|
part 2
e|------17--19--14--19--17-------------------------------------------|
B|-14-14--14--14--14--14--14-----------------------------------------|
G|-------------------------------------------------------------------|
D|-------------------------------------------------------------------|
A|-------------------------------------------------------------------|
E|-------------------------------------------------------------------|

e|----------------------------------------15----15--15----19--14--12-|
B|-reapeat the 1st part---------------1212--1212--12--1414--14--1412-|
G|-of the solo and then play this------------------------------------|
D|-------------------------------------------------------------------|
A|-------------------------------------------------------------------|
E|-------------------------------------------------------------------|

| /  slide up
| \  slide down
| h  hammer-on
| p  pull-off
| ~  vibrato
| +  harmonic
| x  Mute note
===============================================================================
comments
We did not receive enough feedback on this tab! Please rate:
print report bad tab
1 2 3 4 5
1 comment total.
0 reply
PlectrumKev wrote on April 9 2009, 08:35 am

Wrong

I want to post or [tab]
guest
You may want to rate the tab now too:
select rating
Please do not post tabs as comments. Select "correction" instead!