Oops, an error
Loading. Please wait.

Direction Tab

version 1
version 1

Whole song

3,006 views 12 this week
no commentswrite comment
1 2 3 4 5
accurate
x 5
add to favorites
launch autoscroll
font size
0
reset
how to read this tab
guitar tuner
Tab Pro tools
  • play this tab
  • loop segment
  • change instrument
  • show fretboard
  • metronome
×
Best way to learn
"Direction"
Autoscroll
slow
fast
+/-
esc
set tempo
stop
Contributor
Direction

Intro
e------------------------------------------------|
b------------------------------------------------|
g------------------------------------------------|
d------------------------------------------------|
a--5--5----5-------5----5--5-----5------5--------|
E-2--2--2-2--2-2-2---3---3---3-3--3-3-3----------|

e---------------------------------------------------------------|
b---------------------------------------------------------------|
g---------------------------------------------------------------|
d---------------------------------------------------------------|
a--5--5----5-------5----5--5-----5------5----7-7-7-7-7-7-7------|
E-2--2--2-2--2-2-2---3---3---3-3--3-3-3------5-5-5-5-5-5-5------|


The verse is D and A7 played like this

  D   A7
e-2---0---|
b-3---2---|
g-2---0---|
d-----2---|
a---------|
e---------|

D                            A7
I may be leaving, but it's okay
D                           A7
To say what you're feeling, but baby not for free


The "its called direction" bit (play it in time with the vocal melody)
e-------------------------|
b-------------------------|
g-------------------------|
d-9*---11*----9*----7*----|
a-------------------------|
e-------------------------|

*= Quick, numerous picking

Verse 2

D                              A7
Did you realise it's not quite time
D                                               A7
You look out the window, the trains keep rolling by


The "its called direction" bit (play it in time with the vocal melody)
e-------------------------|
b-------------------------|
g-------------------------|
d-9*---11*----9*----7*----|
a-------------------------|
e-------------------------|

*= Quick, numerous picking


Verse 3

D                           A7
You're still in but then comes the evening
D                                       A7
It's the best time of day, cause that's when you're on your own

The "its called direction" bit (play it in time with the vocal melody)
e-------------------------|
b-------------------------|
g-------------------------|
d-9*---11*----9*----7*----|
a-------------------------|
e-------------------------|

*= Quick, numerous picking


Bridge 1

         D                          A
Finding you face down I heard you say

                         Bm
No-one needs to know anyway

               A
The reasons why we're late


Verse 4

D                      A7
Holding on, but is that right?
D                              A7
You take me home but only on a night

The "its called direction" bit (play it in time with the vocal melody)
e-------------------------|
b-------------------------|
g-------------------------|
d-9*---11*----9*----7*----|
a-------------------------|
e-------------------------|

*= Quick, numerous picking

Verse 5

D                    A7
Don't forget, we'll wait and see
D                           A7
They only ask because you are with me

The "Although we’ve got no direction" bit (play it in time with the vocal melody)
e-------------------------|
b-------------------------|
g-------------------------|
d-9*---11*----9*----7*----|
a-------------------------|
e-------------------------|

*= Quick, numerous picking


Bridge 2

         D                          A
Finding you face down I heard you say

                         Bm
No-one needs to know anyway

               A
The reasons why we're late


Outro solo

e|------14--------------------14--15--14--------------|
B|-15-15--15-17-15-16-15-17-15--15--15--15------------|
G|----------------------------------------------------|
D|----------------------------------------------------|
A|----------------------------------------------------|
E|----------------------------------------------------|
part 2
e|------17--19--14--19--17-------------------------------------------|
B|-14-14--14--14--14--14--14-----------------------------------------|
G|-------------------------------------------------------------------|
D|-------------------------------------------------------------------|
A|-------------------------------------------------------------------|
E|-------------------------------------------------------------------|

e|----------------------------------------15----15--15----19--14--12-|
B|-reapeat the 1st part---------------1212--1212--12--1414--14--1412-|
G|-of the solo and then play this------------------------------------|
D|-------------------------------------------------------------------|
A|-------------------------------------------------------------------|
E|-------------------------------------------------------------------|


Check out my Cribs guitar tab blog at http://thecribsguitartabs.blogspot.co.uk/
comments
print report bad tab
I want to post or [tab]
guest
You may want to rate the tab now too:
select rating
Please do not post tabs as comments. Select "correction" instead!