Oops, an error
Loading. Please wait.

Dont Believe In Me Tab

version 1
version 1

Whole song

891 views 1 this week
no commentswrite comment
1 2 3 4 5
please rate
add to favorites
launch autoscroll
font size
0
reset
how to read this tab
guitar tuner
Autoscroll
slow
fast
+/-
esc
set tempo
stop
Help us to improve Ultimate-Guitar.com Take our survey!
×
Author
Capo
2nd fret
-------------------------------------------------------------------------------
                             Don't Believe In Me - The Cribs
-------------------------------------------------------------------------------
Tabbed by: Daniel Pearson
Email: danieltpearson@gmail.com

It's not in order and I'm not sure if it's even correct but if it is, then all the parts 
you need are here.

Tuning: Capo on 2nd: Standard

e|----------0----------0----------0----------0----------------------------------|
B|------------0----------0----------0----------0--------------------------------|
G|--------2----------4----------4----------5------------x3----------------------|
D|--0h2\3----------5----------6----------7--------------------------------------|
A|------------------------------------------------------------------------------|
E|------------------------------------------------------------------------------|
                                 C
e|----------3-0--------0---------0-------------------------------------------|
B|-----------------------0-------1-------------------------------------------|
G|--------2----------4-----------0-------------------------------------------|
D|--0h2\3----------5-------------2-------------------------------------------|
A|-------------------------------3-------------------------------------------|
E|-------------------------------x-------------------------------------------|

A belief in a higher power...

e|-----------0-----0-----0-------------0-----0-----0-------------------------|
B|-------------1-----1-----1-------------3-----3-----3-----------------------|
G|---------2-----2-----2-----2-------4-----4-----4-----4---------------------|
D|-------3-------------------------5-----------------------------------------|
A|---------------------------------------------------------------------------|
E|---------------------------------------------------------------------------|

Cos I don't believe, I don't believe, I don't believe in me....

 Strummed chord progression between  C and Am
e|-----------------------------------0------0--------------------------------|
B|-----------------------------------1------1--------------------------------|
G|-----------------------------------0------2--------------------------------|
D|-----------------------------------2------2--------------------------------|
A|-----------------------------------3------0--------------------------------|
E|-----------------------------------x------x--------------------------------|



************************************

| /   slide up
| \   slide down
| h   hammer-on
| p   pull-off
| ~   vibrato
| +   harmonic
| x   Mute note
| b   Bend
| pb  Pre-bend
| br  Bend release
| pbr Pre-bend release
| brb Bend release bend

************************************
Suggest correction
Give kudos to tab author, rate the tab!
1 2 3 4 5
comments
print report bad tab
guest
You may want to rate the tab now too:
select rating
Wanna post a correction for this tab? Suggest correction