Oops, an error
Loading. Please wait.

Get Yr Hands Out Of My Grave Tab

43 views 1 this week
no commentswrite comment
1 2 3 4 5
3 more votes to show rating
add to favorites
launch autoscroll
font size
0
reset
how to read this tab
guitar tuner
Autoscroll
slow
fast
+/-
esc
set tempo
stop
Help us to improve Ultimate-Guitar.com Take our survey!
×
Author
Difficulty
Tabbed by: the_watch_trick
E-mail: k.borowski@live.co.uk


[Intro]

I've not tabbed the exact rhythm but it's pretty easy to work out, I used the live version 
so refer to that if you need guidance -> https://www.youtube.com/watch?v=i9PmhZZVRwk
e|---------------------------------------------------------------------------|
B|---------------------------------------------------------------------------|
G|-6--------2--------11------9-9-9-9--9/11-9/11--6------6-6-6-6-x-x----------|
D|-x-(x16)--x-(x16)--x-(x8)--x-x-x-x--x/x--x/x---x-(x8)-x-x-x-x-x-x----------|
A|-4--------4--------9-------7-7-7-7--7/9--7/9---4------4-4-4-4-x-x----------|
E|------------------------------------------------------5-5-5-5-x-x-000-0-0--|


[Verse 1] (x2)

e|------------------------------------------------------------------------------------------------------|
B|------------------------------------------------------------------------------------------------------|
G|------------------------------------------------------------------------------------------------------|
D|------------------------------------------------------------------------------------------------------|
A|-------------------------4-4-4-4-7-7-7-7-7-7-7-7-7-7-7-7-7-7-7-7-14-14-14-14-14-14-14-14-14-14-14-14--|
E|-5-5-5-5-5-5-5-5-5-5-5-5------------------------------------------------------------------------------|

e|---------------------------------------------------------------------------|
B|---------------------------------------------------------------------------|
G|---------------------------------------------------------------------------|
D|---------------------------------------------------------------------------|
A|-16-16-16-16-12-12-12-12-12-12-12-12-11-11-11-11-11-11-11-11---------------|
E|---------------------------------------------------------------------------|

e|----------------------------9-9-9-9-9------------------9--9---9--9---9--9---9--9---9--9-----|
B|----------------------------7-7-7-7-7---10-10--10-10--10-10--10-10--10-10--10-10--10-10-----|
G|-------11-11-11-11-11-9-9-9-9-9-9-9-9----9--9---9--9---9--9---9--9---9--9---9--9---9--9-----|
D|-------x--x--x--x--x--------------------11-11--11-11--11-11--11-11--11-11--11-11--11-11-----|
A|-9-9-9-9--9--9--9--9------------------------------------------------------------------------|
E|--------------------------------------------------------------------------------------------|


[Chorus 1] (x2)

e|---------------------------------------------------------------|
B|---------------------------------------------------------------|
G|-6--------2--------11------9-------6------6-6-6-6-x-x----------|
D|-x-(x16)--x-(x16)--x-(x8)--x-(x8)--x-(x8)-x-x-x-x-x-x----------|
A|-4--------4--------9-------7-------4------4-4-4-4-x-x----------|
E|------------------------------------------5-5-5-5-x-x-000-0-0--|


[Verse 2]

e|------------------------------------------------------------------------------------------------------|
B|------------------------------------------------------------------------------------------------------|
G|------------------------------------------------------------------------------------------------------|
D|------------------------------------------------------------------------------------------------------|
A|-------------------------4-4-4-4-7-7-7-7-7-7-7-7-7-7-7-7-7-7-7-7-14-14-14-14-14-14-14-14-14-14-14-14--|
E|-5-5-5-5-5-5-5-5-5-5-5-5------------------------------------------------------------------------------|

e|---------------------------------------------------------------------------|
B|---------------------------------------------------------------------------|
G|---------------------------------------------------------------------------|
D|---------------------------------------------------------------------------|
A|-16-16-16-16-12-12-12-12-12-12-12-12-11-11-11-11-11-11-11-11---------------|
E|---------------------------------------------------------------------------|

e|----------------------------9-9-9-9-9------------------9--9---9--9---9--9---9--9---9--9------|
B|----------------------------7-7-7-7-7---10-10--10-10--10-10--10-10--10-10--10-10--10-10------|
G|-------11-11-11-11-11-9-9-9-9-9-9-9-9----9--9---9--9---9--9---9--9---9--9---9--9---9--9------|
D|-------x--x--x--x--x--------------------11-11--11-11--11-11--11-11--11-11--11-11--11-11------|
A|-9-9-9-9--9--9--9--9------------------------------------------------------------------------------|
E|--------------------------------------------------------------------------------------------------|

e|------------------------------------------------------------------------------------------------------|
B|------------------------------------------------------------------------------------------------------|
G|------------------------------------------------------------------------------------------------------|
D|------------------------------------------------------------------------------------------------------|
A|-------------------------4-4-4-4-7-7-7-7-7-7-7-7-7-7-7-7-7-7-7-7-14-14-14-14-14-14-14-14-14-14-14-14--|
E|-5-5-5-5-5-5-5-5-5-5-5-5------------------------------------------------------------------------------|

e|--------------------------------------------------------------|
B|--------------------------------------------------------------|
G|-------------------------------------14-14-14-14-13-13-13-13--|
D|--------------------------------------------------------------|
A|-16-16-16-16-12-12-12-12-12-12-12-12--------------------------|
E|--------------------------------------------------------------|

e|----------------------------9-9-9-9-9------------------9--9---9--9---9--9---9--9---9--9---9--9----|
B|----------------------------7-7-7-7-7---10-10--10-10--10-10--10-10--10-10--10-10--10-10--10-10----|
G|-------11-11-11-11-11-9-9-9-9-9-9-9-9----9--9---9--9---9--9---9--9---9--9---9--9---9--9---9--9----|
D|-------x--x--x--x--x--------------------11-11--11-11--11-11--11-11--11-11--11-11--11-11--11-11----|
A|-9-9-9-9--9--9--9--9------------------------------------------------------------------------------|
E|--------------------------------------------------------------------------------------------------|


[Break]

e|--9--9---9--9---9--9---9--9---9--9---9--9---9--9---9--9--7-7--7-7--7-7--7-7--7-7--7-7--7-7--7-7---|
B|-10-10--10-10--10-10--10-10--10-10--10-10--10-10--10-10--7-7--7-7--7-7--7-7--7-7--7-7--7-7--7-7---|
G|--9--9---9--9---9--9---9--9---9--9---9--9---9--9---9--9--7-7--7-7--7-7--7-7--7-7--7-7--7-7--7-7---|
D|-11-11--11-11--11-11--11-11--11-11--11-11--11-11--11-11--9-9--9-9--9-9--9-9--9-9--9-9--9-9--9-9---|
A|--------------------------------------------------------------------------------------------------|
E|--------------------------------------------------------------------------------------------------|

e|--9--9---9--9---9--9---9--9---9--9---9--9---9--9---9--9-----9----------9-----------9----------9------9---|
B|-12-12--12-12--12-12--12-12--12-12--12-12--12-12--12-12--12---12----12---12-----12---12----12---12---10--|
G|--9--9---9--9---9--9---9--9---9--9---9--9---9--9---9--9----------9----------9-9---------9----------9-9---|
D|---------------------------------------------------------------------------------------------------------|
A|---------------------------------------------------------------------------------------------------------|
E|---------------------------------------------------------------------------------------------------------|


[Chorus 2] (x2)

e|---------------------------------------------------------------|
B|---------------------------------------------------------------|
G|-6--------2--------11------9-------6------6-6-6-6-x-x----------|
D|-x-(x16)--x-(x16)--x-(x8)--x-(x8)--x-(x8)-x-x-x-x-x-x----------|
A|-4--------4--------9-------7-------4------4-4-4-4-x-x----------|
E|------------------------------------------5-5-5-5-x-x-000-0-0--|

Then end on
e|-----|
B|-----|
G|-6---|
D|-x---|
A|-4---|
E|-----|


************************************

| x   Dead note
| /   Slide up

************************************
Suggest correction
Give kudos to tab author, rate the tab!
1 2 3 4 5
comments
print report bad tab
guest
You may want to rate the tab now too:
select rating
Wanna post a correction for this tab? Suggest correction