Oops, an error
Loading. Please wait.

Girls Like Mystery Bass Tab

version 1
version 1

Whole song

Interactive

2,934 views 1 this week
no commentswrite comment
1 2 3 4 5
2 more votes to show rating
add to favorites
launch autoscroll
font size
0
reset
guitar tuner
Autoscroll
slow
fast
+/-
esc
set tempo
stop
Help us to improve Ultimate-Guitar.com Take our survey!
×
Author
Difficulty
novice
Intro
G|----------------------------------------------------------------------|
D|----------------------------------------------------------------------|
A|---------------------6666666666665555-----------------6666666666666666|
E|-----44--66--44--66-------------------44--66--44--66------------------|

Verse
G|----------------------------------------------------------------------|
D|-------------------------5--------55----------------------------------|
A|6-6-66-1/3-3-3-111--6-6-6--1/3-3-3--6---------------------------------|
E|--------------------------------------44444444666666664444444466666666|

Pre-Chorus
G|-----------------------------------------------------------|------|
D|-----------------------------------------------------------|------|
A|----------------6666666666665555--------------44--666666666|666666|
E|44--66--44--66--------------------44--66--44---------------|------|
                                                              ^^^^^^^
                          Only play these on the first time through

Chorus
1st bar                              2nd bar
G|--------------------------------|--------------------------------|
D|--------------------------------|--------------------------------|
A|----------------6-6-66-46-66-666|----------------6-6-66-46-66-666|
E|4444444466666666----------------|4444444466666666----------------|

3rd bar                               4th bar
G|--------------------------------|--------------------------------|
D|--------------------------------|--------------------------------|
A|----------------6-6-66-46-66-666|----------------6666666666666666|
E|4444444466666666----------------|44--44--66--66------------------|

Verse

Pre-Chorus

Last Chorus
At the end of the last chorus play this instead of the 4th bar
G|------------------------------------------------------------------|
D|------------------------------------------------------------------|
A|------------------------------------------------66666666666666666\|
E|44--44--66--66--44--44--66--66--44--44--66--66--------------------|
Suggest correction
Give kudos to tab author, rate the tab!
1 2 3 4 5
comments
print report bad tab
guest
You may want to rate the tab now too:
select rating
Wanna post a correction for this tab? Suggest correction