Oops, an error
Loading. Please wait.

Glitters Like Gold Tab

version 1
version 1

Whole song

4,163 views 15 this week
1 commentread comment
1 2 3 4 5
accurate
x 4
add to favorites
launch autoscroll
font size
0
reset
how to read this tab
guitar tuner
Tab Pro tools
  • play this tab
  • loop segment
  • change instrument
  • show fretboard
  • metronome
Autoscroll
slow
fast
+/-
esc
set tempo
stop
Difficulty
intermediate
Capo on 2

Intro-(repeatedly strum chords really fast)

|-----------------------------|
|-----------------------------|
|-3------5---7----------8---2-|
|-3------5---7---5------8---2-|
|-1------3---5---5------6---0-|
|----------------3------------|

Verse 1

|-1--1--1-1--1--1--1-1--3--3--3-3--2--2--2-2-|
|-3--3--3-3--3--3--3-3--3--3--3-3--3--3--3-3-|
|-3--3--3-3--3--3--3-3--3--3--3-3--2--2--2-2-|
|--------------------------------------------|
|--------------------------------------------|
|--------------------------------------------| x2

|-1--1--1-1--1--1--1-1--3--3--3-3--5--5--5-5-|
|-3--3--3-3--3--3--3-3--3--3--3-3--3--3--3-3-|
|-3--3--3-3--3--3--3-3--3--3--3-3--2--2--2-2-|
|--------------------------------------------|
|--------------------------------------------|
|--------------------------------------------|

|-1--1--1-1-----------3--3--3-3--2--2--2-2-|
|-3--3--3-3-----------3--3--3-3--3--3--3-3-|
|-3--3--3-3-7-7-7-5-3-3--3--3-3--2--2--2-2-|
|------------------------------------------|
|------------------------------------------|
|------------------------------------------|

Bridge 1

|---------------------------------------------------------|
|---------------------------------------------------------|
|---------------------------------------------------------|
|---------------------------------------------------------|
|-----1-1---3/5--55-555-55-1-1---3-5-3-1---1-1---3-55-555-|
|-1h3-----3--------------------3---------3-----3----------|

|------------------------------------------------------|
|--------------------------------------8-8-6-6-6-------|
|---------5-7-5-3-----3-3---5--77--777--7-7-7-7-77-5-3-|
|-3-3-333---------3h5-----5----------------------------|
|------------------------------------------------------|
|------------------------------------------------------|








Chorus

|----1-----1-----------------------------------------------------------|
|----------------------3-----3----------4-----4-----------3-----3------|
|0-3---0-3---0-3---0-3---0-3---0-3--0-5---0-5---0-5---0-3---0-3---0-3/-|
|----------------------------------------------------------------------|
|----------------------------------------------------------------------|
|----------------------------------------------------------------------|

|-----10----10---10--10-10-10-10-10---8--8--------------|
|---11----11-----10--10-10-11-13-13--11-11-8-8-10-8-10b-|
|\12----12----12-12--12-12-12-12-12--10-10--------------|
|-------------------------------------------------------|
|-------------------------------------------------------|
|-------------------------------------------------------| x2

Bridge 2
|--------------------|
|--------------------|
|-8----------10----2-|
|--------------------|
|--------------------|
|--------------------|

Verse 2

|-1--1--1-1--1--1--1-1--3--3--3-3--2--2--2-2-|
|-3--3--3-3--3--3--3-3--3--3--3-3--3--3--3-3-|
|-3--3--3-3--3--3--3-3--3--3--3-3--2--2--2-2-|
|--------------------------------------------|
|--------------------------------------------|
|--------------------------------------------|

|-1--1--1-1-----------3--3--3-3--2--2--2-2-|
|-3--3--3-3-----------3--3--3-3--3--3--3-3-|
|-3--3--3-3-7-7-7-5-3-3--3--3-3--2--2--2-2-|
|------------------------------------------|
|------------------------------------------|
|------------------------------------------|

BRIDGE 1

|---------------------------------------------------------|
|---------------------------------------------------------|
|---------------------------------------------------------|
|---------------------------------------------------------|
|-----1-1---3/5--55-555-55-1-1---3-5-3-1---1-1---3-55-555-|
|-1h3-----3--------------------3---------3-----3----------|

|------------------------------------------------------|
|--------------------------------------8-8-6-6-6-------|
|---------5-7-5-3-----3-3---5--77--777--7-7-7-7-77-5-3-|
|-3-3-333---------3h5-----5----------------------------|
|------------------------------------------------------|
|------------------------------------------------------|


Chorus

|----1-----1-----------------------------------------------------------|
|----------------------3-----3----------4-----4-----------3-----3------|
|0-3---0-3---0-3---0-3---0-3---0-3--0-5---0-5---0-5---0-3---0-3---0-3/-|
|----------------------------------------------------------------------|
|----------------------------------------------------------------------|
|----------------------------------------------------------------------|

|-----10----10---10--10-10-10-10-10---8--8--------------|
|---11----11-----10--10-10-11-13-13--11-11-8-8-10-8-10b-|
|\12----12----12-12--12-12-12-12-12--10-10--------------|
|-------------------------------------------------------|
|-------------------------------------------------------|
|-------------------------------------------------------| x2


Bridge 3
|---------------|
|---------------|
|-8--7--5--2--3-|
|-------------3-|
|-------------1-|
|---------------|

MIDDLE (w/ chorus effect)

|---------------------------9-----|
|-----3--4-3------6-8-6---8---8---|
|-0-3---------0-7-------7---------|
|---------------------------------|
|---------------------------------|
|---------------------------------| x3

|----------------------|
|-----3--4-3------6-8--|
|-0-3---------0-7------|
|----------------------|
|----------------------|
|----------------------|

Chorus

|----1-----1-----------------------------------------------------------|
|----------------------3-----3----------4-----4-----------3-----3------|
|0-3---0-3---0-3---0-3---0-3---0-3--0-5---0-5---0-5---0-3---0-3---0-3/-|
|----------------------------------------------------------------------|
|----------------------------------------------------------------------|
|----------------------------------------------------------------------|

|-----10----10---10--10-10-10-10-10---8--8--------------|
|---11----11-----10--10-10-11-13-13--11-11-8-8-10-8-10b-|
|\12----12----12-12--12-12-12-12-12--10-10--------------|
|-------------------------------------------------------|
|-------------------------------------------------------|
|-------------------------------------------------------| x2

Outro
|---------------|
|---------------|
|-8--7--5--2--3-|
|-------------3-|
|-------------1-|
|---------------|
comments
print report bad tab
1 comment total.
0 reply
ouipants wrote on June 26 2012, 04:47 pm

Brilliant! Only problem is the end of the chorus, but I haven't been able to figure it out myself.

I want to post or [tab]
guest
You may want to rate the tab now too:
select rating
Please do not post tabs as comments. Select "correction" instead!