Oops, an error
Loading. Please wait.

Glitters Like Gold Tab

version 2
version 2

Whole song

2,487 views 3 this week
2 commentsread comments
1 2 3 4 5
1 last vote to show rating
add to favorites
launch autoscroll
font size
0
reset
how to read this tab
guitar tuner
Autoscroll
slow
fast
+/-
esc
set tempo
stop
Help us to improve Ultimate-Guitar.com Take our survey!
×
Author
Difficulty
novice
The Cribs - Glitters Like Gold (2012)
Tabbed by Shaun Whorton (jif1986)

Standard tuning (EADGbE)


Intro-
Play these as individual notes, let ring as per the song. 

|-----------------------------|
|-----------------------------|
|-----------------------------|
|----3--2---------------------|
|-3-------0--0-2-0------------|
|-------------------1----3----|


Verse chords - listen to the song for the changes.

|-------------7---------------|
|---8---10----8---------------|
|---9----9----9---------------|
|--10---10--------------------|
|-----------------------------|
|-----------------------------|

|-----------------------------|
|---8---10----9---------------|
|---9----9----9---------------|
|--10---10---10---------------|
|-----------------------------|
|-----------------------------| 
This is played once too - 

|-----------------------------|
|---8---------------10----9---|
|---9--9-9-9-7-5-----9----9---|
|--10---------------10---10---|
|-----------------------------|
|-----------------------------| 

Pre-chorus riff

|--------------------------------------------|
|--------------------------------------------|
|--------------------------------------------|
|--------------------------------------------|
|-------333---5-7r--7777h-5-3-33---5-7-5-3---|
|-3h-5------5--------------------5-----------| > 


|-------------------------------------------------------------------------|
|-------------------------------------------------------------------------|
|------------------------------------------9----------------------------9-|
|---------------------------------------12---12-10-------10-10-10----12---|
|-------333---5-7r--77-7s10-10-10-10-10------------10s12----------12------|
|-3h-5------5-------------------------------------------------------------|


"it never shows that my..."

|----------------------------|
|--10--8---------------------|
|----------------------------|
|----------9-9-9-9-9---------|
|---------------------12-10--|
|----------------------------|


Chorus - "mind will always fight me..."

|----------------------------------------------------------------------------|
|-------8------8------------5------5----------6-----6---------5-----5--------|
|-----9------9------9-----5------5-----5----7-----7-----7---5-----5------5---|
|--10-----10-----10-----7------7-----7----7-----7-----7---7-----7------7-----|
|----------------------------------------------------------------------------|
|----------------------------------------------------------------------------|

|--------12-------12--------------10-------10---------------10----8-0(g)-----|
|-----13-------13-------13----12--------12--------12---8-8-----8-------------|
|--14-------14-------14----12--------12-------12-----------------------------|
|----------------------------------------------------------------------------|
|----------------------------------------------------------------------------|
|----------------------------------------------------------------------------|

|----------------------------------------------------------------------------|
|--10-10-12-10-12b13---------------------------------------------------------|
|---------------------repeat, then-------10---12-----------------------------|
|--------------------------------------------------9-------------------------|
|----------------------------------------------------------------------------|
|----------------------------------------------------------------------------|

Pre-bridge (slide from note to note)

|-----------------|
|-----------------|
|--10-9-7-5-4-----|
|-----------------|
|-------------3---|
|-----------------| 

Bridge (note the palm mute section!) - "I guess I got what you wanted..."

PM---------------------------------------                              -------

|--------------------------------------------------------------12--10----------|
|------------8-8-----------------8-8----------8------8-10-8------------8-8-----|
|--------9-9------9-9-------9-9------9-9----9---9--9--------9--------------9-9-|
|--10-10--------------10-10--------------10------------------------------------|
|------------------------------------------------------------------------------|
|------------------------------------------------------------------------------|

"keeps me cold.."
|--------------------------|
|-----10---9---------------|
|-----9----9---------------|
|-----10---10--------------|
|--------------------------|
|--------------------------| 

Outro
|-----------------|
|-----------------|
|--10-9-7-5-4-----|
|-----------------|
|-------------3---|
|-----------------|



Suggest correction
Give kudos to tab author, rate the tab!
1 2 3 4 5
comments
print report bad tab
2 comments total.
0 reply
alex9999999999 254 Mar 30, 2013 09:47 AM

brilliant tab, however i still cannot seem to make the bridge fit! even though it sounds as you've tabbed it, i cannot link it up with the song (noting the palm mute) other than that though, amazing! 5*

0 reply
jif1986 32 Nov 10, 2015 12:39 PM

Thanks :)

guest
You may want to rate the tab now too:
select rating
Wanna post a correction for this tab? Suggest correction