Oops, an error
Loading. Please wait.

Haunted Tab

1,032 views 1 this week
no commentswrite comment
1 2 3 4 5
please rate
add to favorites
launch autoscroll
font size
0
reset
how to read this tab
guitar tuner
Autoscroll
slow
fast
+/-
esc
set tempo
stop
Help us to improve Ultimate-Guitar.com Take our survey!
×
-----------------------------------------------------------------------------
                             HAUNTED - The Cribs
-----------------------------------------------------------------------------
Tabbed by: Brenton Lee Fogglesworth
Email: sierrahotel34@hotmail.com



Tuning:
Intro/Verse
e|-9----9--------------------------------------------------------------------|
B|-10---9h10-----------------------------------------------------------------|
G|-10---9--------------------------------------------------------------------|
D|-11---11-------------------------------------------------------------------|
A|-8----9--------------------------------------------------------------------|
E|---------------------------------------------------------------------------|
Chorus
e|--------9---7--5--8--------------------------------------------------------|
B|-9--10--10--9--5-----------------------------------------------------------|
G|-9--9---11--7--6--7--------------------------------------------------------|
D|-9--11--0---9--7--6--------------------------------------------------------|
A|-7--9-------7--7--7--------------------------------------------------------|
E|-0-------------5-----------------------------------------------------------|
Bridge
e|-5-------------------------------------------------------------------------|
B|-5--5----------------------------------------------------------------------|
G|-6--7----------------------------------------------------------------------|
D|-7--6----------------------------------------------------------------------|
A|-7--7----------------------------------------------------------------------|
E|-5-------------------------------------------------------------------------|


************************************

| /   slide up
| \   slide down
| h   hammer-on
| p   pull-off
| ~   vibrato
| +   harmonic
| x   Mute note
| b   Bend
| pb  Pre-bend
| br  Bend release
| pbr Pre-bend release
| brb Bend release bend

************************************
Suggest correction
What's this?
You can suggest a correction to this tab. Community and Mods will review your correction and vote to approve or reject it.
comments
We did not receive enough feedback on this tab! Please rate:
print report bad tab
1 2 3 4 5
guest
You may want to rate the tab now too:
select rating
Please do not post tabs as comments. Select "correction" instead!