Oops, an error
Loading. Please wait.

Hello Oh Tab

version 2
version 2

Whole song

  • This version requires the use of a capo like is us... Show more
40 views 1 this week
no commentswrite comment
1 2 3 4 5
3 more votes to show rating
add to favorites
launch autoscroll
font size
0
reset
how to read this tab
guitar tuner
Autoscroll
slow
fast
+/-
esc
set tempo
stop
Help us to improve Ultimate-Guitar.com Take our survey!
×
Author
Difficulty
Capo
novice
2nd fret
About this tab version
This version requires the use of a capo like is used in the live version and covers the song in more detail. Was this info helpful? Yes No
Tabbed by: the_watch_trick
E-mail: k.borowski@live.co.uk

Everything is relative to the capo apart from solo. The song is pretty straightforward, 
the verses and chorus consist of just the same chord progression.

[Intro]
e|-------------------------------------------------|
B|-------------------------------------------------|
G|-5-5-5-5-5-5-5-5-5-8-8-8-------------------------|
D|-x-x-x-x-x-x-x-x-x-x-x-x-5-5-5-5-5-5-5-5-5-5-5-5-|
A|-3-3-3-3-3-3-3-3-3-6-6-6-x-x-x-x-x-x-x-x-x-x-x-x-|
E|-------------------------3-3-3-3-3-3-3-3-3-3-3-3-|

e|-0-----0-----0-----1-----------|
B|-1-----0-----1-----0-----------|
G|-0-----0-----2-----0-----------| x2
D|-2-----2-----2-----3-----------|
A|-3-----2-----------------------|
E|-------------------------------|

[Verse 1]
e|-0-----0-----0-----1-----------|
B|-1-----0-----1-----0-----------|
G|-0-----0-----2-----0-----------| x4
D|-2-----2-----2-----3-----------| 
A|-3-----2-----------------------|
E|-------------------------------|

[Chorus] Slightly different rhythm
e|-0-----0-----0-----1-----------|
B|-1-----0-----1-----0-----------|
G|-0-----0-----2-----0-----------| x2
D|-2-----2-----2-----3-----------| 
A|-3-----2-----------------------|
E|-------------------------------|

After Chorus 1 play this bit again
e|-------------------------------------------------|
B|-------------------------------------------------|
G|-5-5-5-5-5-5-5-5-5-8-8-8-------------------------|
D|-x-x-x-x-x-x-x-x-x-x-x-x-5-5-5-5-5-5-5-5-5-5-5-5-|
A|-3-3-3-3-3-3-3-3-3-6-6-6-x-x-x-x-x-x-x-x-x-x-x-x-|
E|-------------------------3-3-3-3-3-3-3-3-3-3-3-3-|

[Verse 2]
e|-0-----0-----0-----1-----------|
B|-1-----0-----1-----0-----------|
G|-0-----0-----2-----0-----------| x2
D|-2-----2-----2-----3-----------| 
A|-3-----2-----------------------|
E|-------------------------------|

[Chorus]
e|-0-----0-----0-----1-----------|
B|-1-----0-----1-----0-----------|
G|-0-----0-----2-----0-----------| x4
D|-2-----2-----2-----3-----------| 
A|-3-----2-----------------------|
E|-------------------------------|

[Solo-NOT RELATIVE TO CAPO] x2
e|-10-10-10-10-10-10-10-10-10-12-12-12-14-14-14-14-14-14-14-14-14-14-14-14-15-15-15-15-15-15-15-15-15-|
B|-10-10-10-10-10-10-10-10-10-12-12-12-14-14-14-14-14-14-14-14-14-14-14-14-15-15-15-15-15-15-15-15-15-|
G|----------------------------------------------------------------------------------------------------|
D|----------------------------------------------------------------------------------------------------|
A|----------------------------------------------------------------------------------------------------|
E|----------------------------------------------------------------------------------------------------|

e|-17-17-17-14-14-14-14-14-14-12-12-12-12-12-12-14-14-14-14-14-14-14-14-14-14-14-14-14-17-16-15-15-15-|
B|-17-17-17-14-14-14-14-14-14-12-12-12-12-12-12-14-14-14-14-14-14-14-14-14-14-14-14-14-14-14-14-14-14-|
G|----------------------------------------------------------------------------------------------------|
D|----------------------------------------------------------------------------------------------------|
A|----------------------------------------------------------------------------------------------------|
E|----------------------------------------------------------------------------------------------------|

e|-12--12--12--14-13-/10-14-14-13-12-|
B|-12--12--12--12-12-/10-10-10-10-10-|
G|-----------------------------------|
D|-----------------------------------|
A|-----------------------------------|
E|-----------------------------------|

[Outro]
e|-0-----0-----0-----1-----------|
B|-1-----0-----1-----0-----------|
G|-0-----0-----2-----0-----------| x2
D|-2-----2-----2-----3-----------| 
A|-3-----2-----------------------|
E|-------------------------------|

Then end on:
e|-0---|
B|-1---|
G|-0---|
D|-2---|
A|-3---|
E|-----|

************************************
| x   Dead note
| /   Slide up
************************************
Suggest correction
Give kudos to tab author, rate the tab!
1 2 3 4 5
comments
print report bad tab
guest
You may want to rate the tab now too:
select rating
Wanna post a correction for this tab? Suggest correction