Oops, an error
Loading. Please wait.

Hey Scenesters Bass Tab

version 2
version 2

Whole song

Interactive

1,663 views 1 this week
no commentswrite comment
1 2 3 4 5
2 more votes to show rating
add to favorites
launch autoscroll
font size
0
reset
guitar tuner
Autoscroll
slow
fast
+/-
esc
set tempo
stop
Help us to improve Ultimate-Guitar.com Take our survey!
×
Author
Difficulty
novice
G|-----------------------------------------------------------------------|
D|-----------------------------------------------------------------------|
A|-------------------------5--5--55--55--5--55--5------------------------|
E|-7--7--77--77--7--77--7--------------------------7--7--77--77--7--77--7|  

G|----------------------------------| 
D|----------------------------------| 
A|----------------------------------|              
E|-33333333333333335555555555555555-|    

G|-----------------------------------------------------------------------|
D|-----------------------------------------------------------------------|
A|-------------------------5--5--55--55--5--55--5------------------------|
E|-7--7--77--77--7--77--7--------------------------7--7--77--77--7--77--7|  

G|----------------------------------| 
D|----------------------------------| 
A|----------------------------------|              
E|-33333333333333335555555555555555-|    

G|-----------------------------------------------------------------------|
D|-----------------------------------------------------------------------|
A|-------------------------5--5--55--55--5--55--5------------------------|
E|-7--7--77--77--7--77--7--------------------------7--7--77--77--7--77--7|  

G|----------------------------------| 
D|----------------------------------| 
A|----------------------------------|              
E|-33333333333333335555555555555555-|    

Bridge

G|----------------------------------| 
D|----------------------------------| 
A|--5--5--5-------------------------|              
E|-----------5-6-7-7-777-7----------|    x4

G|----------------------------------| 
D|----------------------------------| 
A|----------------------------------|              
E|-33333333333333337777777777777777-|    x4

G|-----------| 
D|-----------| 
A|--55--55---|              
E|-----------|    

G|-----------------------------------------------------------------------|
D|-----------------------------------------------------------------------|
A|-------------------------5--5--55--55--5--55--5------------------------|
E|-7--7--77--77--7--77--7--------------------------7--7--77--77--7--77--7|  

G|----------------------------------| 
D|----------------------------------| 
A|----------------------------------|              
E|-33333333333333335555555555555555-|    

G|-----------------------------------------------------------------------|
D|-----------------------------------------------------------------------|
A|-------------------------5--5--55--55--5--55--5------------------------|
E|-7--7--77--77--7--77--7--------------------------7--7--77--77--7--77--7|  


G|-----------------------------------------------------------------------|
D|-----------------------------------------------------------------------|
A|-------------------------5--5--55--55--5--55--5------------------------|
E|-7--7--77--77--7--77--7--------------------------7--7--77--77--7--77--7|  

G|----------------------------------| 
D|----------------------------------| 
A|--5--5--5-------------------------|              
E|-----------5-6-7-7-777-7----------|    x3

G|----------------------------------| 
D|----------------------------------| 
A|----------------------------------|              
E|-33333333333333337777777777777777-|    x4

G|-----------| 
D|-----------| 
A|--55--55---|              
E|-----------|    

G|-----------------------------------------------------------------------|
D|-----------------------------------------------------------------------|
A|-------------------------5--5--55--55--5--55--5------------------------|
E|-7--7--77--77--7--77--7--------------------------7--7--77--77--7--77--7|  

G|----------------------------------| 
D|----------------------------------| 
A|----------------------------------|              
E|-33333333333333335555555555555555-|    

G|-----------------------------------------------------------------------|
D|-----------------------------------------------------------------------|
A|-------------------------5--5--55--55--5--55--5------------------------|
E|-7--7--77--77--7--77--7--------------------------7--7--77--77--7--77--7|  

G|----------------------------------| 
D|----------------------------------| 
A|----------------------------------|              
E|-33333333333333335555555555555555-|    

Outro

G|------------------------------------------| 
D|------------------------------------------| 
A|------------------------------------------|              
E|--777--777--777--777--222--222--222--11111| 
Suggest correction
Give kudos to tab author, rate the tab!
1 2 3 4 5
comments
print report bad tab
guest
You may want to rate the tab now too:
select rating
Wanna post a correction for this tab? Suggest correction