Oops, an error
Loading. Please wait.

Hey Scenesters Tab

version 2
version 2

Whole song

Interactive

2,963 views 15 this week
no commentswrite comment
1 2 3 4 5
excellent!
x 3
add to favorites
launch autoscroll
font size
0
reset
how to read this tab
guitar tuner
Autoscroll
slow
fast
+/-
esc
set tempo
stop
Help us to improve Ultimate-Guitar.com Take our survey!
×
Author
Here's the way I play it. I think it is fairly close to the original and sounds good to 
me. I hope it helps :)

Standard Tuning.

Intro:

|----5-7------------5-7------------5-7------------------5-7-----|
|--0-----0-5-7-0--0-----0-5-7-0--0-----0-5-7-0--0-5-7-0-----5-7-|
|---------------------------------------------------------------|
|---------------------------------------------------------------|
|---------------------------------------------------------------|
|---------------------------------------------------------------|

Verse:

|--5--5-5--5-5--5--5-5----7-7--7--7-7--7-7--7--7-7---5--5-5--5-7--7-7--7-|
|--7--7-7--7-7--7--7-7----5-5--5--5-5--5-5--5--5-5---7--7-7--7-5--5-5--5-|
|--7--7-7--7-7--7--7-7----7-7--7--7-7--7-7--7--7-7---7--7-7--7-7--7-7--7-|
|------------------------------------------------------------------------|
|------------------------------------------------------------------------|
|------------------------------------------------------------------------|

Intro
Verse
Intro
Bridge 1: same rythm as verse

|--7-7-7-7-7-7-7-7-7-7-7-7-7-|
|--7-7-7-7-7-7-7-7-7-7-7-7-7-|
|--7-7-7-7-7-7-7-7-7-7-7-7-7-|
|----------------------------|
|----------------------------|
|----------------------------|

Bridge 2:

|--7-7-------------7-5-5-5-5-|
|------7---------7-----------|
|--------7-x-x-6-------------|
|----------------------------|
|----------------------------|
|----------------------------|

Play this 3 times, then:

|--7-7-------------7-5-------|
|------7---------7-----7-5---|
|--------7-x-x-6-----------7-|
|----------------------------|
|----------------------------|
|----------------------------|

Play the first part again:

|--7-7-------------7-5-5-5-5-|
|------7---------7-----------|
|--------7-x-x-6-------------|
|----------------------------|
|----------------------------|
|----------------------------|

And on the fourth time play this :

|--7-7---------5-5-7-7-|
|------7-------7-7-7-7-|
|--------7-x-x-7-7-7-7-|
|----------------------|
|----------------------|
|----------------------|

Verse
Intro
Verse
Intro
Bridge 1
Bridge 2
Verse
Intro
Verse
Intro

Outro:

|--5-5-5--5-5-5--5-5-5--5-5-5--7-7-7--7-7-7--7-7-7-----7-7-7-7-7-|
|--7-7-7--7-7-7--7-7-7--7-7-7--7-7-7--7-7-7--7-7-7-----7-7-7-7-7-|
|--7-7-7--7-7-7--7-7-7--7-7-7--7-7-7--7-7-7--7-7-7-----7-7-7-7-7-|
|----------------------------------------------------------------|
|----------------------------------------------------------------|
|----------------------------------------------------------------|

That's it. Good luck and good playing!
Suggest correction
Give kudos to tab author, rate the tab!
1 2 3 4 5
comments
print report bad tab
guest
You may want to rate the tab now too:
select rating
Please do not post tabs as comments. Select "correction" instead!