Oops, an error
Loading. Please wait.

Im A Realist Bass Tab

version 2
version 2

Whole song

Interactive

4,379 views 9 this week
no commentswrite comment
1 2 3 4 5
please rate
add to favorites
launch autoscroll
font size
0
reset
guitar tuner
Autoscroll
slow
fast
+/-
esc
set tempo
stop
Help us to improve Ultimate-Guitar.com Take our survey!
×
Difficulty
intermediate
The Cribs
I'm A Realist

     Intro:

G|----------|----------|-7777-7777-|----------|
D|-7777-7777|-6666-66--|-----------|-6666-66--|
A|----------|--------77|-----------|--------77|
E|----------|----------|-----------|----------|

G|----------|----------|-7777-7777-|----------|
D|-7777-7777|-6666-66--|-----------|-6666-66--|
A|----------|--------77|-----------|--------77|
E|----------|----------|-----------|----------|

  Verse 1:

G|------------------------|------------------------|
D|------------------------|--------------------765-|
A|------------------------|------------------------|
E|-5--5--55---5--5--5544--|-2--2--22---2--2--2-----|
    
G|-------------------------|------------------------|
D|-------------------------|------------------------|
A|-------------------------|-7--7--77---7-9999-7777-|
E|-7--7--77---7--7--7-7-99-|------------------------|

G|------------------------|------------------------|
D|------------------------|--------------------765-|
A|------------------------|------------------------|
E|-5--5--55---5--5--5544--|-2--2--22---2--2--2-----|

G|-------------------------|------------------------|
D|-------------------------|------------------------|
A|-------------------------|-7--7--77---7-9999-7777-|
E|-7--7--77---7--7--7-7-99-|------------------------|

  Chorus:

G|----------|----------|-7777-7777|----------|
D|-7777-7777|-6666-66--|----------|-6666-66--|
A|----------|--------77|----------|--------77|
E|----------|----------|----------|----------|
                                               Break
G|----------|----------|-7777-7777|----------|----------|
D|-7777-7777|-6666-66--|----------|-6666-66--|----------|
A|----------|--------77|----------|--------77|----------|
E|----------|----------|----------|----------|-5--------|

  Verse 2:
G|------------------------|------------------------|
D|------------------------|--------------------765-|
A|------------------------|------------------------|
E|-5--5--55---5--5--5544--|-2--2--22---2--2--2-----|
    
G|-------------------------|------------------------|
D|-------------------------|------------------------|
A|-------------------------|-7--7--77---7-9999-7777-|
E|-7--7--77---7--7--7-7-99-|------------------------|

G|------------------------|------------------------|
D|------------------------|--------------------765-|
A|------------------------|------------------------|
E|-5--5--55---5--5--5544--|-2--2--22---2--2--2-----|

G|-------------------------|------------------------|
D|-------------------------|------------------------|
A|-------------------------|-7--7--77---7-9999-7777-|
E|-7--7--77---7--7--7-7-99-|------------------------|

Chorus

G|----------|----------|-7777-7777|----------|
D|-7777-7777|-6666-66--|----------|-6666-66--|
A|----------|--------77|----------|--------77|
E|----------|----------|----------|----------|

G|----------|----------|-7777-7777|----------|
D|-7777-7777|-6666-66--|----------|-6666-66--|
A|----------|--------77|----------|--------77|
E|----------|----------|----------|----------|

G|----------|----------|-7777-7777|----------|
D|-7777-7777|-6666-66--|----------|-6666-66--|
A|----------|--------77|----------|--------77|
E|----------|----------|----------|----------|

G|----------|----------|-7777-7777|----------|
D|-7777-7777|-6666-66--|----------|-6666-66--|
A|----------|--------77|----------|--------77|
E|----------|----------|----------|----------|

Bridge

G|---------------------|---------------------|
D|---------------------|---------------------|
A|---------------------|-4444-4444-4444-4444-|
E|-5555-5555-5555-5555-|---------------------|

G|---------------------|---------------------|
D|---------------------|---------------------|
A|---------------------|-7-7-77--7-7-77777---|
E|-7777-7777-7777-7777-|---------------------|

G|---------------------|---------------------|
D|---------------------|---------------------|
A|---------------------|-4444-4444-4444-4444-|
E|-5555-5555-5555-5555-|---------------------|

G|---------------------|---------------------|
D|---------------------|---------------------|
A|---------------------|-7-7-77--7-7-77777---|
E|-7777-7777-7777-7777-|---------------------|

Outro

G|----------|----------|-7777-7777|----------|
D|-7777-7777|-6666-66--|----------|-6666-66--|
A|----------|--------77|----------|--------77|
E|----------|----------|----------|----------|

G|----------|----------|-7777-7777|----------|
D|-7777-7777|-6666-66--|----------|-6666-66--|
A|----------|--------77|----------|--------77|
E|----------|----------|----------|----------|



G|----------|----------|-7777-7777|----------|
D|-7777-7777|-6666-66--|----------|-6666-66--|
A|----------|--------77|----------|--------77|
E|----------|----------|----------|----------|

							End
G|----------|----------|-7777-7777|----------|----------||
D|-7777-7777|-6666-66--|----------|-6666-66--|----------||
A|----------|--------77|----------|--------77|----------||
E|----------|----------|----------|----------|-5--------||

 Lyrics:

I'm a realist, I'm a romantic and I’m an indecisive piece of shit

I'm a realist, I'm a romantic and I am indecisive and that's about it

And you dream that's the same thing
That’s the same life you lead
I don't agree and so you drink
Don’t wanna think
That’s cos your mind is already made up

I'm a realist, I'm a romantic and I'm an indecisive piece of shit

I admit it; I'm up to my old tricks
Did you see her eyes (oh no I tried), She looked surprised

And you dream that's the same thing
That’s the same life you lead
I don't agree and so you drink
Don’t wanna think
That’s cos your mind is already made up

How you dream that's the same thing
That’s the same life you lead
I don't agree and so you
Drink don't wanna think
That’s cos your mind is already made up. No

I know that it's only a matter of time
Before you know it I'll be leaving town
See it in my eyes
No one will do
No one will ever do

I know that it's only a matter of time
Before you know it I'll be leaving town
Seen it in your eyes
No one will ever do
No one will ever do for you
Suggest correction
Give kudos to tab author, rate the tab!
1 2 3 4 5
comments
print report bad tab
guest
You may want to rate the tab now too:
select rating
Wanna post a correction for this tab? Suggest correction