Oops, an error
Loading. Please wait.

It Was Only Love Tab

version 1
version 1

Acoustic

Whole song

1,606 views 1 this week
no commentswrite comment
1 2 3 4 5
x 3
add to favorites
launch autoscroll
font size
0
reset
how to read this tab
guitar tuner
Autoscroll
slow
fast
+/-
esc
set tempo
stop
Help us to improve Ultimate-Guitar.com Take our survey!
×
Author
I tabbed this based on the bass line, and here is my version: 
http://www.youtube.com/watch?v=9F-mBDy4FlY
:)

E||-8--8---------------------------|-8--8---------------------------|
B||----10--5--5--8--8---10-12-10---|----10--5--5--8--8---10-12-10---|
G||-----------7-----10-------------|-----------7-----10-------------|
D||--------------------------------|--------------------------------|
A||--------------------------------|--------------------------------|
e||--------------------------------|--------------------------------|
Why don't we take a walk? Oh, you know there's no one to tell us no. Oh,

E||----------------8--8--5--5---|--------3--3---8-8-8-8----|
B||--8--8--10--10-----10----7---|--8--8-----5--------------|
G||-----10-----12---------------|-----10-------------------|
D||-----------------------------|--------------------------|
A||-----------------------------|--------------------------|
e||-----------------------------|--------------------------|
because you can't regret something that you'll forget And that's the beauty

E||-8--8---------------------------|-8--8---------------------------|
B||----10--5--5--8--8---10-12-10---|----10--5--5--8--8---10-12-10---|
G||-----------7-----10-------------|-----------7-----10-------------|
D||--------------------------------|--------------------------------|
A||--------------------------------|--------------------------------|
e||--------------------------------|--------------------------------|
I like you because you're strange Oh, but you say that you need to change

E||----------------8--8--5--5---|--------3--3---8-8-8-8----|
B||--8--8--10--10-----10----7---|--8--8-----5--------------|
G||-----10-----12---------------|-----10-------------------|
D||-----------------------------|--------------------------|
A||-----------------------------|--------------------------|
e||-----------------------------|--------------------------|
Oh, but if I dress you like me, then you'll still never be, More than your bus fare to me

Am
Why must you have to?
Dm
You know I never wanted anything more
G
I must forgive you
C
It was only love
Am
I never tried to
Dm
You must have known I never wanted anything more
G
I misunderstood you
C
It was only love

E||-8--8---------------------------|-8--8---------------------------|
B||----10--5--5--8--8---10-12-10---|----10--5--5--8--8---10-12-10---|
G||-----------7-----10-------------|-----------7-----10-------------|
D||--------------------------------|--------------------------------|
A||--------------------------------|--------------------------------|
e||--------------------------------|--------------------------------|
Do you remember when we were teens? Oh, we were studying the same things

E||----------------8--8--5--5---|--------3--3---8-8-8-8----|
B||--8--8--10--10-----10----7---|--8--8-----5--------------|
G||-----10-----12---------------|-----10-------------------|
D||-----------------------------|--------------------------|
A||-----------------------------|--------------------------|
e||-----------------------------|--------------------------|
Oh, I'm sorry that you were wrong and that you never moved on It's good to never belong

E||-8--8---------------------------|-8--8---------------------------|
B||----10--5--5--8--8---10-12-10---|----10--5--5--8--8---10-12-10---|
G||-----------7-----10-------------|-----------7-----10-------------|
D||--------------------------------|--------------------------------|
A||--------------------------------|--------------------------------|
e||--------------------------------|--------------------------------|
On your soapbox you feel so tall No one hears so that don't mean much at all

E||----------------8--8--5--5---|--------3--3---8-8-8-8----|
B||--8--8--10--10-----10----7---|--8--8-----5--------------|
G||-----10-----12---------------|-----10-------------------|
D||-----------------------------|--------------------------|
A||-----------------------------|--------------------------|
e||-----------------------------|--------------------------|
Oh, you mean nothing to me, home town jealously You're just a formality

Am
Why did you have to?
Dm
You must never have known I never wanted anything more
G
And I never miss you
C
I thought it was only love
Am
But don't ever call me
Dm
Don't ever call me, baby
G
Cause I won't be friendly
C
It was only love
Suggest correction
Give kudos to tab author, rate the tab!
1 2 3 4 5
comments
print report bad tab
guest
You may want to rate the tab now too:
select rating
Wanna post a correction for this tab? Suggest correction