Oops, an error
Loading. Please wait.

Ive Tried Everything Bass Tab

version 1
version 1

Whole song

924 views 1 this week
no commentswrite comment
1 2 3 4 5
please rate
add to favorites
launch autoscroll
font size
0
reset
guitar tuner
Tab Pro tools
  • play this tab
  • loop segment
  • change instrument
  • show fretboard
  • metronome
×
Best way to learn
"Ive Tried Everything"
Autoscroll
slow
fast
+/-
esc
set tempo
stop
Contributor
-------------------------------------------------------------------------------
			     I tried Everything – The Cribs
-------------------------------------------------------------------------------

Tabbed By : Omri Cohen
e-mail: i.m.bleach@gmail.com

Tuning: Standard

G|-------------------------------------------------------------|
D|-------------------------------------------------------------|
A|-1/7-7---7-7-7--7-7-7--7-7-7-6-2-----------------------2-6---|
E|---------------------------------4-4--4-4-4--4-4-4--2-4-4----|

That's the entire verse. You can play with the riffs between the E and the G#
But I like to do this  specific one just before going into the chorus:


G|------------------------------------------------------------------|
D|------------------------------------------------------------------|
A|-1/7-7---7-7-7--7-7-7--7-7-7-6-2---------------2----4----4-6------|
E|---------------------------------4-4--4-4-4--4---4-4--4-4---------|

Chorus:

G|--------------------------------------------------------------------|
D|--------------------------------------------------------------------|
A|--7-7-7-7-7-7-7-7-9-9-9-9-9-9-9-9-2-2-2-2-1-1-1-1---------6-6-------|
E|--------------------------------------------------4-4-4-4-----7-7---|

G|---------------------------------------------------------------------------|
D|---------------------------------------------------------------------------|
A|--7-7-7-7-7-7-7-7-9-9-9-9-9-9-9-9---2-2--2-2--2-2--2-2-2-2--2-2--2-2-------|
E|---------------------------------------------------------------------------|

Same verse and chorus as the first ones

Third chorus (before the bridge)

G|--------------------------------------------------------------------|
D|--------------------------------------------------------------------|
A|--7-7-7-7-7-7-7-7-9-9-9-9-9-9-9-9-2-2-2-2-1-1-1-1---------6-6-------|
E|--------------------------------------------------4-4-4-4-----7-7---|

G|---------------------------------------------------------------------------|
D|---------------------------------------------------------------------------|
A|--7-7-7-7-7-7-7-7-9-9-9-9-9-9-9-9---2-2--2-2--2-2--2-2--2-2--2-2--2-2-22---|
E|---------------------------------------------------------------------------|

Bridge:

G|---------------------------------------------------------------------------|
D|---------------------------------------------------------------------------|
A|--2-2-2-2-2-2-2--2-2-2-2-2-1-1---------------------2-4-4-4-4-4-4-4---------|
E|-------------------------------4-4-4-4-4-4-4-4-4-4-------------------------|

G|---------------------------------------------------------------------------|
D|---------------------------------------------------------------------------|
A|--4-4-4-4-4-4--4-4-4-4-4-4-4-4-4-4-4-4--4----------------------------------|
E|------------------------------------------2-2-2-2-2-2----------------------|

And than just go to the final chorus.

This is just how I play it, don't be afraid to improvise.

For advises, notes and/or viruses- i.m.bleach@gmail.com

| /  slide up
| \  slide down
| h  hammer-on
| p  pull-off
| ~  vibrato
| +  harmonic
| x  Mute note
===============================================================================
comments
We did not receive enough feedback on this tab! Please rate:
print report bad tab
1 2 3 4 5
I want to post or [tab]
guest
You may want to rate the tab now too:
select rating
Please do not post tabs as comments. Select "correction" instead!