Oops, an error
Loading. Please wait.

Ive Tried Everything tab

version 3
version 3

Whole song

151 views 1 this week
no commentswrite comment
1 2 3 4 5
2 more votes to show rating
add to favorites
×
Save as Personal and add changes to this tab that will be seen only by you. Learn more ›
×
You can save this tab as Personal to edit and correct it or add notes. All changes will be seen only by you. Learn more »
launch autoscroll
font size
0
reset
how to read this tab
guitar tuner
edit
Autoscroll
slow
fast
+/-
esc
set tempo
stop
Author
Difficulty
-------------------------------------------------------------------------------
                        I've Tried Everything - The Cribs
-------------------------------------------------------------------------------
Tabbed by: Rory H
E-mail: rdeh10@googlemail.com

From the album 'Men's Needs, Women's Needs, Whatever'. I felt the current version was incorrect in many 
ways and so tabbed this using my hearing and watching what I could of live versions. I'm pretty sure this
is mostly correct and how it is played. Any corrections or improvements, send to me via email or leave
as a comment below :) Enjoy!

I also have tabbed the bass for this song, and you can access it here:
http://tabs.ultimate-guitar.com/t/the_cribs/ive_tried_everything_ver2_btab.htm

Tuning: EADGBe

Intro:
e|-11-11-11-11-11-11-11--11-11-11-11-11-11-11-|
B|-14-14-14-14-12-14-14--14-14-14-14-12-12-12-|
G|-11-11-11-11-11-11-11--11-11-11-11-11-11-11-| x2
D|-11-11-11-11-11-11-11--11-11-11-11-11-11-11-|
A|--------------------------------------------|
E|--------------------------------------------|

Verse 1:
e|----9------7-7-7-6--4----------------xx----9-----7-7-7-6--4----3-3-3-4--6-xx-|
B|--9-9----0-4-4-4-4--4--4---4-4-4-4---00--9-9---0-4-4-4-4--4-0--4-4-4-4--4-00-|
G|--9-9------------------6b8-8-8-8-8r6-00--9-9------------------------------00-|
D|-------------------------------------xx-----------------------------------xx-|
A|-------------------------------------xx-----------------------------------xx-|
E|-----------------------------------------------------------------------------|

e|----9------7-7-7-6--4----------------xx----9--99-99-99------7--6-----6-----6---|
B|--9-9----0-4-4-4-4--4--4---4-4-4-4---00--9-9--99-99-99-0-9--9----9-----9-----9-|
G|--9-9------------------6b8-8-8-8-8r6-00--9-9--99-99-99-0-8--8------8-----8-----|
D|-------------------------------------00----------------------------------------|
A|-------------------------------------xx----------------------------------------|
E|-------------------------------------------------------------------------------|

Chorus:
e|-7-----7-----7---9-----9-----9--11-------11-------11-----11-------11-------11-|
B|---9-----9---------9-----9---------12-------12-------12-----12-------12-------|
G|-----8-----8---------8-----8----------11-------11--------------11-------11----|
D|------------------------------------------------------------------------------|
A|------------------------------------------------------------------------------|
E|------------------------------------------------------------------------------|

e|-12-------12-------14-------11-------11----------|
B|----12-------12-------12-------11-------11----14-|
G|-------11-------11-------11-------11-------11----|
D|-------------------------------------------------|
A|-------------------------------------------------|
E|-------------------------------------------------|

e|-11-11--11-11--11-11--11-11--11-11--11-11--11-11--0-|
B|-12-12--12-12--12-12--12-12--12-12--12-12--12-12--0-|
G|-11-11--11-11--11-11--11-11--11-11--11-11--11-11----|
D|----------------------------------------------------|
A|----------------------------------------------------|
E|----------------------------------------------------|

Verse 2:
e|---9------7-7-7-6--4-0---------------xx----9--99-99-99------7--6-----6-----6---|
B|-9-9----0-4-4-4-4--4-0-4---4-4-4-4---00--9-9--99-99-99---9--9----9-----9-----9-|
G|-9-9-------------------6b8-8-8-8-8r6-00--9-9--99-99-99-8-8--8------8-----8-----|
D|-------------------------------------00----------------------------------------|
A|-------------------------------------xx----------------------------------------|
E|----(\)------------------------------------------------------------------------|
       ^Pick Slide

Chorus:
e|-7-----7-----7---9-----9-----9--11-------11-------11-----11-------11-------11-|
B|---9-----9---------9-----9---------12-------12-------12-----12-------12-------|
G|-----8-----8---------8-----8----------11-------11--------------11-------11----|
D|------------------------------------------------------------------------------|
A|------------------------------------------------------------------------------|
E|------------------------------------------------------------------------------|

e|-12-------12-------14-------11-------11----------|
B|----12-------12-------12-------11-------11----14-|
G|-------11-------11-------11-------11-------11----|
D|-------------------------------------------------|
A|-------------------------------------------------|
E|-------------------------------------------------|

e|-11-11--11-11--11-11--11-11--11-11--11-11--11-11--0-|
B|-12-12--12-12--12-12--12-12--12-12--12-12--12-12----|
G|-11-11--11-11--11-11--11-11--11-11--11-11--11-11----| 
D|----------------------------------------------------|
A|----------------------------------------------------|
E|----------------------------------------------------|

e|-7-----7-----7---9-----9-----9--11-------11-------11-----11-------11-------11-|
B|---9-----9---------9-----9---------12-------12-------12-----12-------12-------|
G|-----8-----8---------8-----8----------11-------11--------------11-------11----|
D|------------------------------------------------------------------------------|
A|------------------------------------------------------------------------------|
E|------------------------------------------------------------------------------|

e|-12-------12-------14-------11-------11----------|
B|----12-------12-------12-------11-------11----14-|
G|-------11-------11-------11-------11-------11----|
D|-------------------------------------------------|
A|-------------------------------------------------|
E|-------------------------------------------------|

e|-11-11--11-11--11-11--11-11--11-11--11-11--11--11-11-11-|
B|-12-12--12-12--12-12--12-12--12-12--12-12--12--12-12-12-|
G|-11-11--11-11--11-11--11-11--11-11--11-11--11--11-11-11-| 
D|--------------------------------------------------------|
A|--------------------------------------------------------|
E|--------------------------------------------------------|

Bridge:
e|-11-11-11-11-11-11-11--11-11-11-11-11-11-11-11--11--11-11-11-----------11----------| |
B|-14-14-14-14-12-14-14--14-14-14-14-12-14-12-11--11--11-12-11--------11-----11----0-| |
G|-11-11-11-11-11-11-11--11-11-11-11-11-11-11-11--11--11-11-11-13--13-----------13---| |
D|-----------------------------------------------------------------------------------| |
A|-----------------------------------------------------------------------------------| |
E|-----------------------------------------------------------------------------------| |
                                                                                       |  x2
e|-12-12-12-12-11-11-11---x12-12-12-12-11-11-11--99-9-9-9-11-11-11--77-7-7-7-6-6-6-|   |
B|--9--9--9--9--9--9--9---x-9--9--9--9--9--9--9--77-7-7-7--7--7--7--55-5-5-5-5-5-5-|   |
G|---------------------------------------------------------------------------------|   |
D|---------------------------------------------------------------------------------|   |
A|---------------------------------------------------------------------------------|   |
E|---------------------------------------------------------------------------------|   |

e|-11-11-11-11-11-11-11--11-11-11-11-11-11-11-11--11--11-11-11-------------11-----| 
B|-14-14-14-14-12-14-14--14-14-14-14-12-14-12-11--11--11-12-11---------11------11-| 
G|-11-11-11-11-11-11-11--11-11-11-11-11-11-11-11--11--11-11-11-13--13-------------| 
D|--------------------------------------------------------------------------------| 
A|--------------------------------------------------------------------------------| 
E|--------------------------------------------------------------------------------| 
                                                                                       
e|-12-12-12-12-11-11-11---x12-12-12-12-11-11---|  
B|--9--9--9--9--9--9--9---x-9--9--9--9--9--9-0-|  
G|---------------------------------------------|  
D|---------------------------------------------|  
A|---------------------------------------------|  
E|---------------------------------------------|  

Final Chorus:
e|-7-----7-----7----9-----9-----9---11-------11-------11-----11-------11-------11----|
B|---9-----9-----9----9-----9-----9----12-------12-------12-----12-------12-------12-|
G|-----8-----8----------8-----8-----------11-------11--------------11-------11-------|
D|-----------------------------------------------------------------------------------|
A|-----------------------------------------------------------------------------------|
E|-----------------------------------------------------------------------------------|

e|-12-------12-------14-------11-------11----------|
B|----12-------12-------12-------11-------11----14-|
G|-------11-------11-------11-------11-------11----|
D|-------------------------------------------------|
A|-------------------------------------------------|
E|-------------------------------------------------|

e|-11-11--11-11--11-11--11-11--11-11--11-11-|
B|-12-12--12-12--12-12--12-12--12-12--12-12-|
G|-11-11--11-11--11-11--11-11--11-11--11-11-| 
D|------------------------------------------|
A|------------------------------------------|
E|------------------------------------------|

************************************

| /   slide up
| \   slide down
| h   hammer-on
| p   pull-off
| ~   vibrato
| +   harmonic
| x   Mute note
| b   Bend
| pb  Pre-bend
| br  Bend release
| pbr Pre-bend release
| brb Bend release bend

************************************
Suggest correction
Creating personal tab
Creating personal tab
You can edit any tab online and save it as your Personal.

You can edit, replace or remove any tab part or add personal notes – all changes will be seen only by you.

Personal tabs can be accessed anytime from any device, even offline.
Learn more »
Give kudos to tab author, rate the tab!
1 2 3 4 5
comments
print report bad tab
guest
You may want to rate the tab now too:
select rating
Wanna post a correction for this tab? Suggest correction