Oops, an error
Loading. Please wait.

Kind Words From The Broken Hearted tab

88 views 9 this week
no commentswrite comment
1 2 3 4 5
3 more votes to show rating
add to favorites
×
Save as Personal and add changes to this tab that will be seen only by you. Learn more ›
×
You can save this tab as Personal to edit and correct it or add notes. All changes will be seen only by you. Learn more »
launch autoscroll
font size
0
reset
how to read this tab
guitar tuner
edit
Autoscroll
slow
fast
+/-
esc
set tempo
stop
[Intro]
(Form a C chord - it doesn't have to be as complicated as this; you can just break up a C chord
and play it how you want.)
e|-----------------0-----------------0---0-0---0----------0---0-----0-0---0----0-0---0--0-0--0--0-|
B|-------1---------1------------1----1---1-1---1--------1-1---1-----1-1---1----1-1---1--1-1--1--1-|
G|-------0----0----0----0-------0----0---0-0---0--------0-0---0-----0-0---0----0-0---0--0-0--0--0-|
D|-----2----------------------2-----------------------2---------------------------------2-2--2--2-|
A|-3-3-3----3----3----3---3-3-3----3---3-----3----3-3-3-----3---3-3-----3----3-----3----3-3--3--3-|
E|------------------------------------------------------------------------------------------------|

e|-1--1--1-1--3--3--3-3--3--1--1--1-1--3--3--3-3--3---------------------------------------|
B|-1--1--1-1--3--3--3-3--3--1--1--1-1--3--3--3-3--3-------------1--1--1-1--1--------------|
G|-2--2--2-2--0--0--0-0--0--2--2--2-2--0--0--0-0--0--1--1--1-1--2--2--2-2--2--1--1--1-1---|
D|------------0--0--0-0--0-------------0--0--0-0--0--2--2--2-2--2--2--2-2--2--2--2--2-2---|
A|------------2--2--2-2--2-------------2--2--2-2--2--2--2--2-2--0--0--0-0--0--2--2--2-2---|
E|------------3--3--3-3--3-------------3--3--3-3--3---------------------------------------|

e|-------3-3--3--1--1--1-1--3--x-x-x--x-x--0--0--0-0--0--0--0-0--0------|
B|-1--1--3-3--3--1--1--1-1--3--x-x-x--x-x--1--1--1-1--1--1--1-1--1------|
G|-2--2--0-0--0--2--2--2-2--0--x-x-x--x-x--0--0--0-0--0--0--0-0--0------|
D|-2--2--0-0--0-------------0--x-x-x--x-x--2--2--2-2--2--2--2-2--2------|
A|-0--0--2-2--2-------------2--x-x-x--x-x--3--3--3-3--3--3--3-3--3------|
E|-------3-3--3-------------3--x-x-x--x-x-------------------------------|

[Verse 1]
e|---10--10-10-12-8-8--8-8----------8-8---12-12---10--10----|
B|----8---8--8--8-8-8--8-8----------8-8-8--8--8----8---8----|
G|-/9------------------------10--10-------------------------|
D|----------------------------------------------------------|
A|----------------------------------------------------------|
E|----------------------------------------------------------|

e|--------10-10-12-8-8--8-8----------8-8---12-12-----8------|
B|------8--8--8--8-8-8--8-8----------8-8-8--8--8--8-10-8----|
G|--9-9-----------------------10--10------------------------|
D|----------------------------------------------------------|
A|----------------------------------------------------------|
E|----------------------------------------------------------|

e|-----10-10-12-8-8--7-7----------8--12--12--12--12--12-----|
B|------8--8--8-8-8--8-8----------8---8---8---8---8---8-----|
G|--9-9--------------------10--10---------------------------|
D|----------------------------------------------------------|
A|----------------------------------------------------------|
E|----------------------------------------------------------|

e|------10-10-12-8-8--8-8---------8-8---8-------------------|
B|----8--8--8--8-8-8--8-8---------8-8-8-8-------------------|
G|--9----------------------10--10-----------9-9-8-7---------|
D|----------------------------------------------------------|
A|----------------------------------------------------------|
E|----------------------------------------------------------|

[Chorus 1]
e|-1--1--1-1--3--3--3-3--3--1--1--1-1--3--3--3-3--3---------------------------------------|
B|-1--1--1-1--3--3--3-3--3--1--1--1-1--3--3--3-3--3-------------1--1--1-1--1--------------|
G|-2--2--2-2--0--0--0-0--0--2--2--2-2--0--0--0-0--0--1--1--1-1--2--2--2-2--2--1--1--1-1---|
D|------------0--0--0-0--0-------------0--0--0-0--0--2--2--2-2--2--2--2-2--2--2--2--2-2---|
A|------------2--2--2-2--2-------------2--2--2-2--2--2--2--2-2--0--0--0-0--0--2--2--2-2---|
E|------------3--3--3-3--3-------------3--3--3-3--3---------------------------------------|

e|-------3-3--3--1--1--1-1--3--3--3-3--3--1--1--1-1--3--3--3-3--3--------------------------|
B|-1--1--3-3--3--1--1--1-1--3--3--3-3--3--1--1--1-1--3--3--3-3--3-------------1--1--1-1--1-|
G|-2--2--0-0--0--2--2--2-2--0--0--0-0--0--2--2--2-2--0--0--0-0--0--1--1--1-1--2--2--2-2--2-|
D|-2--2--0-0--0-------------0--0--0-0--0-------------0--0--0-0--0--2--2--2-2--2--2--2-2--2-|
A|-0--0--2-2--2-------------2--2--2-2--2-------------2--2--2-2--2--2--2--2-2--0--0--0-0--0-|
E|-------3-3--3-------------3--3--3-3--3-------------3--3--3-3--3--------------------------|

e|------------------3-3--3--1--1--1-1--3--x-x-x--x-x--0--0--0-0--0--0--0-0--0------|
B|------------1--1--3-3--3--1--1--1-1--3--x-x-x--x-x--1--1--1-1--1--1--1-1--1------|
G|-1--1--1-1--2--2--0-0--0--2--2--2-2--0--x-x-x--x-x--0--0--0-0--0--0--0-0--0------|
D|-2--2--2-2--2--2--0-0--0-------------0--x-x-x--x-x--2--2--2-2--2--2--2-2--2------|
A|-2--2--2-2--0--0--2-2--2-------------2--x-x-x--x-x--3--3--3-3--3--3--3-3--3------|
E|------------------3-3--3-------------3--x-x-x--x-x-------------------------------|

[Verse 2]
e|---10--10-10-12-8-8--8-8----------8-8---12-12---10--10----|
B|----8---8--8--8-8-8--8-8----------8-8-8--8--8----8---8----|
G|-/9------------------------10--10-------------------------|
D|----------------------------------------------------------|
A|----------------------------------------------------------|
E|----------------------------------------------------------|

e|--------10-10-12-8-8--8-8----------8-8---12-12-----8------|
B|------8--8--8--8-8-8--8-8----------8-8-8--8--8--8-10-8----|
G|--9-9-----------------------10--10------------------------|
D|----------------------------------------------------------|
A|----------------------------------------------------------|
E|----------------------------------------------------------|

e|-----10-10-12-8-8--7-7----------8--12--12--12--12--12-----|
B|------8--8--8-8-8--8-8----------8---8---8---8---8---8-----|
G|--9-9--------------------10--10---------------------------|
D|----------------------------------------------------------|
A|----------------------------------------------------------|
E|----------------------------------------------------------|

e|------10-10-12-8-8--8-8---------8-8---8-------------------|
B|----8--8--8--8-8-8--8-8---------8-8-8-8-------------------|
G|--9----------------------10--10-----------9-9-8-7---------|
D|----------------------------------------------------------|
A|----------------------------------------------------------|
E|----------------------------------------------------------|

[Chorus 2]
e|-1--1--1-1--3--3--3-3--3--1--1--1-1--3--3--3-3--3---------------------------------------|
B|-1--1--1-1--3--3--3-3--3--1--1--1-1--3--3--3-3--3-------------1--1--1-1--1--------------|
G|-2--2--2-2--0--0--0-0--0--2--2--2-2--0--0--0-0--0--1--1--1-1--2--2--2-2--2--1--1--1-1---|
D|------------0--0--0-0--0-------------0--0--0-0--0--2--2--2-2--2--2--2-2--2--2--2--2-2---|
A|------------2--2--2-2--2-------------2--2--2-2--2--2--2--2-2--0--0--0-0--0--2--2--2-2---|
E|------------3--3--3-3--3-------------3--3--3-3--3---------------------------------------|

e|-------3-3--3--1--1--1-1--3--3--3-3--3--1--1--1-1--3--3--3-3--3--------------------------|
B|-1--1--3-3--3--1--1--1-1--3--3--3-3--3--1--1--1-1--3--3--3-3--3-------------1--1--1-1--1-|
G|-2--2--0-0--0--2--2--2-2--0--0--0-0--0--2--2--2-2--0--0--0-0--0--1--1--1-1--2--2--2-2--2-|
D|-2--2--0-0--0-------------0--0--0-0--0-------------0--0--0-0--0--2--2--2-2--2--2--2-2--2-|
A|-0--0--2-2--2-------------2--2--2-2--2-------------2--2--2-2--2--2--2--2-2--0--0--0-0--0-|
E|-------3-3--3-------------3--3--3-3--3-------------3--3--3-3--3--------------------------|

e|------------------3-3--3--1--1--1-1--3--x-x-x--x-x--0--0--0-0--0--0--0-0--0------|
B|------------1--1--3-3--3--1--1--1-1--3--x-x-x--x-x--1--1--1-1--1--1--1-1--1------|
G|-1--1--1-1--2--2--0-0--0--2--2--2-2--0--x-x-x--x-x--0--0--0-0--0--0--0-0--0------|
D|-2--2--2-2--2--2--0-0--0-------------0--x-x-x--x-x--2--2--2-2--2--2--2-2--2------|
A|-2--2--2-2--0--0--2-2--2-------------2--x-x-x--x-x--3--3--3-3--3--3--3-3--3------|
E|------------------3-3--3-------------3--x-x-x--x-x-------------------------------|

[Solo]
e|----------------------------------------------------------------10-----------|
B|----------------------------------------------------14--15--13--10-----------|
G|-5-7-7/10--9------------9/10\9-7---------7--7/9-12--------------10---9-9-8-7-|
D|--------------10--9--7-----------10--9---------------------------------------|
A|-----------------------------------------------------------------------------|
E|-----------------------------------------------------------------------------|

[Chorus 3]
e|-1--1--1-1--3--3--3-3--3--1--1--1-1--3--3--3-3--3---------------------------------------|
B|-1--1--1-1--3--3--3-3--3--1--1--1-1--3--3--3-3--3-------------1--1--1-1--1--------------|
G|-2--2--2-2--0--0--0-0--0--2--2--2-2--0--0--0-0--0--1--1--1-1--2--2--2-2--2--1--1--1-1---|
D|------------0--0--0-0--0-------------0--0--0-0--0--2--2--2-2--2--2--2-2--2--2--2--2-2---|
A|------------2--2--2-2--2-------------2--2--2-2--2--2--2--2-2--0--0--0-0--0--2--2--2-2---|
E|------------3--3--3-3--3-------------3--3--3-3--3---------------------------------------|

e|-------3-3--3--1--1--1-1--3--3--3-3--3--1--1--1-1--3--3--3-3--3--------------------------|
B|-1--1--3-3--3--1--1--1-1--3--3--3-3--3--1--1--1-1--3--3--3-3--3-------------1--1--1-1--1-|
G|-2--2--0-0--0--2--2--2-2--0--0--0-0--0--2--2--2-2--0--0--0-0--0--1--1--1-1--2--2--2-2--2-|
D|-2--2--0-0--0-------------0--0--0-0--0-------------0--0--0-0--0--2--2--2-2--2--2--2-2--2-|
A|-0--0--2-2--2-------------2--2--2-2--2-------------2--2--2-2--2--2--2--2-2--0--0--0-0--0-|
E|-------3-3--3-------------3--3--3-3--3-------------3--3--3-3--3--------------------------|

e|------------------3-3--3----1---3-----|
B|------------1--1--3-3--3----1---3-----|
G|-1--1--1-1--2--2--0-0--0----2---0-----|
D|-2--2--2-2--2--2--0-0--0--------0-----|
A|-2--2--2-2--0--0--2-2--2--------2---3-|
E|------------------3-3--3--------3-----|



************************************

| x   Dead note
| /   Slide up
| \   Slide down

************************************

            
            
Suggest correction
Creating personal tab
Creating personal tab
You can edit any tab online and save it as your Personal.

You can edit, replace or remove any tab part or add personal notes – all changes will be seen only by you.

Personal tabs can be accessed anytime from any device, even offline.
Learn more »
Give kudos to tab author, rate the tab!
1 2 3 4 5
comments
print report bad tab
guest
You may want to rate the tab now too:
select rating
Wanna post a correction for this tab? Suggest correction