Oops, an error
Loading. Please wait.

Leather Jacket Love Song Tab

version 1
version 1

Whole song

3,434 views 3 this week
no commentswrite comment
1 2 3 4 5
excellent!
x 5
add to favorites
launch autoscroll
font size
0
reset
how to read this tab
guitar tuner
Autoscroll
slow
fast
+/-
esc
set tempo
stop
Help us to improve Ultimate-Guitar.com Take our survey!
×
Author
Difficulty
-------------------------------------------------------------------------------
                   THE CRIBS - LEATHER JACKET LOVE SONG
-------------------------------------------------------------------------------
Tabbed by: Alex
E-mail:

Tuning: Standard

Fantastic song by Ry, Gaz and Ross as usual. 

Rock out!

Chords used:
Eb - 668886
Cm - 81010888
Ab - 466544
Bb - 688766
Gm - 355333
Cm* - 335543


Intro:
e|----------6---------------3------------------3----------6--6--6----3-------|
B|-------------8---------4-----4------------1-----1-------6--6--6------6-----|
G|---8--8--------8-----5---------5-------1-----------1-----------------------|
D|---------------------------------------------------------------------------|
A|---------------------------------------------------------------------------|
E|---------------------------------------------------------------------------|

e|----------6---------------3------------------3----------6--6--6--6--6--6---|
B|-------------8---------4-----4------------1-----1-------6--6--6--6--6--6---|
G|---8--8--------8-----5---------5-------1-----------1-----------------------|
D|---------------------------------------------------------------------------|
A|---------------------------------------------------------------------------|
E|---------------------------------------------------------------------------|

Eb                       Cm
10 years on and 2001 is long gone
Eb                                             Cm
So I didn't wanna write another leather jacket love song
Ab              Bb              Eb
But you were a drug I couldn't have more
Ab           Bb                   Eb
And I know, it's not the same for you
Eb                                            Cm
In truth you're a saving grace, but you never knew one!
Eb                                        Cm
If I was born at all, I knew I was always born to lose.
Ab             Bb               Eb
But you were a drug I couldn't have more
Ab             Bb              Eb
And I hope, it's not the same for you

Gm                     Cm*
In the dark of your city
Ab                             Bb
I wonder if you ever call my name
        Gm                            Cm
And in boxes and drawers, I'll hide our memories
Ab                                 Bb
In case I need to live my life again...

e|----------6---------------3------------------3----------6--6--6--6--6--6---|
B|-------------8---------4-----4------------1-----1-------6--6--6--6--6--6---|
G|---8--8--------8-----5---------5-------1-----------1-----------------------|
D|---------------------------------------------------------------------------|
A|---------------------------------------------------------------------------|
E|---------------------------------------------------------------------------|

Eb                                          Cm
Of all the things I could've been spending time on
Eb                                           Cm
I didn't wanna write another leather jacket love song
Ab            Bb               Eb
But you were a drug I couldn't have more
Ab              Bb            Eb
And I hope it's not the same for you

(No vocals) Gm ---- Cm ---- Ab ---- Bb (slide down fretboard)

SOLO

e|---------------------------------------------------------------------------|
B|---4-4-4-------4-4-4------4--3--1------1---3---3---3---3---3----1----------|
G|---------3-3-3--------3-------------0--------------------------------3-----|
D|---------------------------------------------------------------------------|
A|---------------------------------------------------------------------------|
E|---------------------------------------------------------------------------|

e|---------------------------------------------------------------------------|
B|---4-4-4-------4-4-4------4--3--1------1---3---3---3---3---3----1//--------|
G|---------3-3-3--------3-------------0--------------------------------------|
D|---------------------------------------------------------------------------|
A|---------------------------------------------------------------------------|
E|---------------------------------------------------------------------------|

e|----------------------------6----------------------------------------------|
B|----8--8--------8--8--6--6----6--8--6--8--8--8--8--6--4//------------------|
G|----------8--5-------------------------------------------------------------|
D|---------------------------------------------------------------------------|
A|---------------------------------------------------------------------------|
E|---------------------------------------------------------------------------|

e|---------------------------------------------------------------------------|
B|----8--8--------8--8--8--8--6--6--6--6--6--6--4--4-4--4--4--4--4--4//6//8--|
G|----------8--5-------------------------------------------------------------|
D|---------------------------------------------------------------------------|
A|---------------------------------------------------------------------------|
E|---------------------------------------------------------------------------|

e|----15--15----------15--15--13--13--18--13--15--13--15--15--15--13--11-----|
B|------------16--13---------------------------------------------------------|
G|---------------------------------------------------------------------------|
D|---------------------------------------------------------------------------|
A|---------------------------------------------------------------------------|
E|---------------------------------------------------------------------------|

e|----15--15----------15--15--13--13--15--12--11--10--9--8--7--6\\0----------|
B|------------16--13---------------------------------------------------------|
G|---------------------------------------------------------------------------|
D|---------------------------------------------------------------------------|
A|---------------------------------------------------------------------------|
E|---------------------------------------------------------------------------|

Thanks! The Cribs forever.

************************************

| /   slide up
| \   slide down
| h   hammer-on
| p   pull-off
| ~   vibrato
| +   harmonic
| x   Mute note
| b   Bend
| pb  Pre-bend
| br  Bend release
| pbr Pre-bend release
| brb Bend release bend

************************************
Suggest correction
comments
print report bad tab
guest
You may want to rate the tab now too:
select rating
Wanna post a correction for this tab? Suggest correction