Oops, an error
Loading. Please wait.

Majors Titling Victory Tab

version 1
version 1

Whole song

2,406 views 3 this week
no commentswrite comment
1 2 3 4 5
accurate
x 3
add to favorites
launch autoscroll
font size
0
reset
how to read this tab
guitar tuner
Autoscroll
slow
fast
+/-
esc
set tempo
stop
Help us to improve Ultimate-Guitar.com Take our survey!
×
Author
MTV

just worked this out

verse
e-----------------------------------------------------|
b-----------------------------------------------------|
g--77--------7------7-------9999999999999999----------|
d-----------------------9-7--9999999999999999---------|
a------9999----99----------7777777777777777-----------|
e-----------------------------------------------------|

chorus
e---------------------------------------------------------------------------------------|
b---------------------------------------------------------------------------------------|
g--77-0000-7-000-7---------(twice)--77--------7-------9--------99---------999-----------|
d-----------------------9-7-----------------9999----999----99-7------9-777-------9-777--|
a---------------------------------------------------------------------------------------|
e---------------------------------------------------------------------------------------|

break
e-----------------------------------------------------------------------------------------|
b-----------------------------------------------------------------------------------------|
g--7------7------7-------9999999999999999-------77-------7-----7-------9999999999999999---|
d--------------------9-7--9999999999999999-------------------------9-7--9999999999999999--|
a----9-9----9-9----------7777777777777777----------9999---99----------7777777777777777----|
e-----------------------------------------------------------------------------------------|

e-------------------------------------------------------------------------------------------------------------------|
b-------------------------------------------------------------------------------------------------------------------|
g--77-0000--7-000--7-------77-0000--7-000--7---------77-0000--7-000--7-------77-0000--7-000--7----------------------|
d-------------------------9-7-------------------------9-7--------------------------9-7-------------------------9-7--|
a-------------------------------------------------------------------------------------------------------------------|
e-------------------------------------------------------------------------------------------------------------------|

e--------------------------------------------------------------------------------------|
b--------------------------------------------------------------------------------------|
g--7-6-7--9-8-9--12-11-12-12-11-12--16-15-16--17-16-17--19-17-16-19--------------------|
d--------------------------------------------------------------------------------------|
a--------------------------------------------------------------------------------------|
e--------------------------------------------------------------------------------------|

end
e--------------------------------------------------------------------------------------|
b--------------------------------------------------------------------------------------|
g--9/------------------/2--------------------------------------------------------------|
d--9/-slide-down-to--/2----------------------------------------------------------------|
a--7/------------------/0--------------------------------------------------------------|
e--------------------------------------------------------------------------------------|


order:
verse     x6
chorus   x1
verse     x2
chorus   x2
break    x1
verse     x2
chorus   x2
end        x1
Suggest correction new What's this?
You can suggest a correction to this tab. Community and Mods will review your correction and vote to approve or reject it.
comments
We did not receive enough feedback on this tab! Please rate:
print report bad tab
1 2 3 4 5
guest
You may want to rate the tab now too:
select rating
Please do not post tabs as comments. Select "correction" instead!