Oops, an error
Loading. Please wait.

Majors Titling Victory Tab

version 2
version 2

Whole song

1,080 views 1 this week
1 commentread comment
1 2 3 4 5
accurate
x 3
add to favorites
launch autoscroll
font size
0
reset
how to read this tab
guitar tuner
Autoscroll
slow
fast
+/-
esc
set tempo
stop
Help us to improve Ultimate-Guitar.com Take our survey!
×
Author
Major's Titling Victory
by The Cribs

Tabed by Vincent

INTRO + VERSE
e|------------------------x-x-x-x-x-x-x-x-x-x-x-x-x-x-x-x|
B|------------------------x-x-x-x-x-x-x-x-x-x-x-x-x-x-x-x|
G|7-0-0-0-7-0-0-7-4-0-2-0-9-9-9-9-9-9-9-9-9-9-9-9-9-9-9-9| x6
D|---4-4-----4-4----------9-9-9-9-9-9-9-9-9-9-9-9-9-9-9-9|
A|------------------------x-x-x-x-x-x-x-x-x-x-x-x-x-x-x-x|
E|------------------------8-8-8-8-8-8-8-8-8-8-8-8-8-8-8-8| 

CHORUS
e|-------------------------------|
B|-------------------------------|
G|7-7-0-0-0-0-7-0-0-0-0-7-4-4-2-2|
D|-------------------------------| x2
A|-------------------------------|
E|-------------------------------|

e|----------------------------------------------------------------|
B|----------------------------------------------------------------|
G|7-7-0-0-0-0-7-0-0-0-0-9-7-7-4-4-/9-9-7-7-4-4-4-9-9-9-7-7-4-4-4-4|
D|----------------------------------------------------------------| 
A|----------------------------------------------------------------|
E|----------------------------------------------------------------|

BRIDGE
e|--------------x-x-x-x-x-x-x-x-x-x-x-x-x-x-x-x|
B|--------------x-x-x-x-x-x-x-x-x-x-x-x-x-x-x-x|
G|7---7---7-4-2-9-9-9-9-9-9-9-9-9-9-9-9-9-9-9-9|
D|-4-4-4-4------9-9-9-9-9-9-9-9-9-9-9-9-9-9-9-9|
A|--------------x-x-x-x-x-x-x-x-x-x-x-x-x-x-x-x|
E|--------------8-8-8-8-8-8-8-8-8-8-8-8-8-8-8-8|

e|------------------------x-x-x-x-x-x-x-x-x-x-x-x-x-x-x-x|
B|------------------------x-x-x-x-x-x-x-x-x-x-x-x-x-x-x-x|
G|7-0-0-0-7-0-0-7-4-0-2-0-9-9-9-9-9-9-9-9-9-9-9-9-9-9-9-9| 
D|---4-4-----4-4----------9-9-9-9-9-9-9-9-9-9-9-9-9-9-9-9|
A|------------------------x-x-x-x-x-x-x-x-x-x-x-x-x-x-x-x|
E|------------------------8-8-8-8-8-8-8-8-8-8-8-8-8-8-8-8| 

SOLO
e|-------------------------------|
B|-------------------------------|
G|7-7-0-0-0-0-7-0-0-0-0-7-4-4-2-2|
D|-------------------------------| x2
A|-------------------------------|
E|-------------------------------|

e|-----------------------------------------------------------|
B|------------------------------12-11-12-13-12-13-15-13-12-13|
G|7-6-7-9-8-9-12-11-12-12-11-12------------------------------|
D|-----------------------------------------------------------|
A|-----------------------------------------------------------|
E|-----------------------------------------------------------|

ENDING
e|-----------|
B|-----------|
G|9\---------|
D|-----------|
A|-----------|
E|-----------|

By Vincent Nydam
Suggest correction
Give kudos to tab author, rate the tab!
1 2 3 4 5
comments
print report bad tab
1 comment total.
0 reply
patch17 3,367 wrote on March 7 2010, 01:24 pm

fanastic tab, well done i say!! :D

guest
You may want to rate the tab now too:
select rating
Please do not post tabs as comments. Select "correction" instead!