Oops, an error
Loading. Please wait.

Mens Needs Bass Tab

version 1
version 1

Whole song

Interactive

17,308 views 15 this week
2 commentsread comments
1 2 3 4 5
excellent!
x 9
add to favorites
launch autoscroll
font size
0
reset
guitar tuner
Tab Pro tools
  • play this tab
  • loop segment
  • change instrument
  • show fretboard
  • metronome
×
Best way to learn
"Mens Needs"
Autoscroll
slow
fast
+/-
esc
set tempo
stop
Contributor
Intro:
  1   2   3   4   1   2   3   4   1   2   3   4   1   2   3   4
G|----------------------------------------------------------------|
D|------------------------6-6-------------------------------------|
A|7777-77-7-7-----7777-77-----6-6-4444-44-4-4-----4444-42-4-2-----|
E|------------------------------------------------------------4-2-|    x2


Verse:
  1   2   3   4   1   2   3   4   1   2   3   4   1   2   3   4
G|----------------------------------------------------------------|
D|------------------------6-6-------------------------------------|
A|7777-77-7-7-----7777-77-----6-6-4444-44-4-4-----4444-42-4-2-----|
E|------------------------------------------------------------4-2-|    x2


Chorus:
  1   2   3   4   1   2   3   4   1   2   3   4   1   2   3   4
G|----------------------------------------------------------------|
D|----------------------------------------------------------------|
A|0000-00-0-0-----0000-00-0-0---2-7777-77-7-7-----7777-77-7-7-6-4-|
E|----------------------------------------------------------------|    x3

  1   2   3   4   1   2   3   4
G|---------------------------------|
D|---------------------------------|
A|0000-00-0-0-----0222-22-2-2----2-|
E|---------------------------------|


2nd Verse:
  1   2   3   4   1   2   3   4   1   2   3   4   1   2   3   4
G|----------------------------------------------------------------|
D|------------------------6-6-------------------------------------|
A|7777-77-7-7-----7777-77-----6-6-4444-44-4-4-----4444-42-4-2-----|
E|------------------------------------------------------------4-2-|    x2


Chorus:
  1   2   3   4   1   2   3   4   1   2   3   4   1   2   3   4
G|----------------------------------------------------------------|
D|----------------------------------------------------------------|
A|0000-00-0-0-----0000-00-0-0---2-7777-77-7-7-----7777-77-7-7-6-4-|
E|----------------------------------------------------------------|    x3

  1   2   3   4   1   2   3   4
G|---------------------------------|
D|---------------------------------|
A|0000-00-0-0-----0222-22-2-2----2-|
E|---------------------------------|


Bridge:
  1   2   3   4   1   2   3   4   1   2   3   4   1   2   3   4
G|----------------------------------------------------------------|
D|----------------------------------------------------------------|
A|7777-77-7-7-----7777-77-7-7-7---4444-44-4-4-----4444-44-4-4-4---|
E|----------------------------------------------------------------|

  1   2   3   4   1   2   3   4   1   2   3   4   1   2   3   4
G|----------------------------------------------------------------|
D|----------------------------------------------------------------|
A|----------------------------------------------------------------|
E|4-4---2/4-4---2/4-4---2/4-4---2/5555-55-5-5-5-5-7777-77-7-7-7-7-|

  1   2   3   4   1   2   3   4   1   2   3   4   1   2   3   4
G|----------------------------------------------------------------|
D|----------------------------------------------------------------|
A|7777-77-7-7-----7777-77-7-7-7--/4444-44-4-4-----4444-44-4-4-4-4-|
E|----------------------------------------------------------------|

  1   2   3   4   1   2   3   4   1   2   3   4   1   2   3   4
G|----------------------------------------------------------------|
D|----------------------------------------------------------------|
A|------------------------------------------------6-2-----9-6-----|
E|4-4---2/4-4---2/5-5---2/5-5---2/7-7---7-7-7---7-----------------|


Last Verse:
  1   2   3   4   1   2   3   4   1   2   3   4   1   2   3   4
G|----------------------------------------------------------------|
D|------------------------6-6-------------------------------------|
A|7777-77-7-7-----7777-77-----6-6-4444-44-4-4-----4444-42-4-2-----|
E|------------------------------------------------------------4-2-|    x2


Last Chorus:
  1   2   3   4   1   2   3   4   1   2   3   4   1   2   3   4
G|----------------------------------------------------------------|
D|----------------------------------------------------------------|
A|0000-00-0-0-----0000-00-0-0---2-7777-77-7-7-----7777-77-7-7-6-4-|
E|----------------------------------------------------------------|    x2

  1   2   3   4   1   2   3   4   1   2   3   4   1   2   3   4
G|----------------------------------------------------------------|
D|----------------------------------------------------------------|
A|0000-00-0-0-----0000-00-0-0---2-7777-77-7-7-----4444-44-4-4-4-4-|
E|----------------------------------------------------------------|

  1   2   3   4   1   2   3   4   1   2   3   4   1   2   3   4
G|-----------------------------------------------------------------|
D|-----------------------------------------------------------------|
A|0000-00-0-0---0-2222-22-2-2---2/7-77-77-7-7---2/7-77-77-7-7---2--|
E|-----------------------------------------------------------------|

  1   2   3   4   1   2   3   4   1   2   3   4   1   2   3   4
G|----------------------------------------------------------------|
D|----------------------------------------------------------------|
A|7-77------2/7-77------------------------------------------------|
E|----------------------------------------------------------------|
comments
print report bad tab
2 comments total.
0 reply
ole-indiekid wrote on October 27 2008, 08:34 pm

great work dude 5*. now, I just wonder, is this a new band, cause I like just heard about it this last week.. heh, my apologies for not taking time to wikipedia it..

0 reply
prt1990 wrote on December 7 2008, 06:42 pm

They're not particularly new; their first album (self-titled) was released in 2004.

I want to post or [tab]
guest
You may want to rate the tab now too:
select rating
Please do not post tabs as comments. Select "correction" instead!