Oops, an error
Loading. Please wait.

Mens Needs Tab

version 2
version 2

Whole song

Interactive

48,168 views 27 this week
5 commentsread comments
1 2 3 4 5
excellent!
x 9
add to favorites
launch autoscroll
font size
0
reset
how to read this tab
guitar tuner
Autoscroll
slow
fast
+/-
esc
set tempo
stop
Help us to improve Ultimate-Guitar.com Take our survey!
×
Author
Difficulty
matty99 225
novice
Men's Needs - The Cribs


Intro: 
e|-2-0-0-2-0-0-2-4----|      e|-2-0-0-2-0-0-2-4-----|
B|-----------------0--|      B|-----------------0-0-|
G|--------------------| X3   G|---------------------|
D|--------------------|      D|---------------------|
A|--------------------|      A|---------------------|
E|--------------------|      E|---------------------|

e|-2-0-0-2-0-0-2-4----|      e|-2-0-0-2-0-0-2-------|
B|-----------------0--|      B|---------------0-0-0-|
G|--------------------| X3   G|---------------------|
D|--------------------|      D|---------------------|
A|--------------------|      A|---------------------|
E|--------------------|      E|---------------------|

Verse:
e|-2-0-0-2-0-0-2-4----|      e|-2-0-0-2-0-0-2-4-----|
B|-----------------0--|      B|-----------------0-0-|
G|--------------------| X3   G|---------------------|
D|--------------------|      D|---------------------|
A|--------------------|      A|---------------------|
E|--------------------|      E|---------------------|

e|-2-0-0-2-0-0-2-4----|      e|-2-0-0-2-0-0-2-------|
B|-----------------0--|      B|---------------0-0-0-|
G|--------------------| X3   G|---------------------|
D|--------------------|      D|---------------------|
A|--------------------|      A|---------------------|
E|--------------------|      E|---------------------|

Chorus:
e|-2-0-0-2-0-0-2-4----| 
B|-----------------0--| 
G|--------------------| X2  
D|--------------------|     
A|--------------------|     
E|--------------------|                                Repeat This 3 Times

e|-555-444-000---------| e|-555-444-777777-000--|
B|-------------000000--| B|---------------------|
G|---------------------| G|---------------------|
D|---------------------| D|---------------------|
A|---------------------| A|---------------------|
E|---------------------| E|---------------------|

4th Time:
Chorus:
e|-2-0-0-2-0-0-2-4-0------4-2-4-0-| 
B|-------------------0------------| 
G|--------------------------------|   
D|--------------------------------|     
A|--------------------------------|     
E|--------------------------------|

Solo:
e|-7xx-4xx-000000000--|     e|-7xx-4xx------------| 
B|--------------------|     B|-7xx-5xx-444444444--|
G|--------------------| X2  G|--------------------| X2 
D|--------------------|     D|--------------------|   
A|--------------------|     A|--------------------| 
E|--------------------|     E|--------------------|


e|--------------------|     e|--------------------| 
B|-9xx-10xx-12-000000-|     B|-9-9-9-9-7-7-7-0----|
G|--------------------| X3  G|-9-9-9-9-9-9-9-9----| 
D|--------------------|     D|--------------------|   
A|--------------------|     A|--------------------| 
E|--------------------|     E|--------------------|


e|-7xx-4xx-000000000--|     e|-7xx-4xx------------| 
B|--------------------|     B|-7xx-5xx-444444444--|
G|--------------------| X2  G|--------------------| X2 
D|--------------------|     D|--------------------|   
A|--------------------|     A|--------------------| 
E|--------------------|     E|--------------------|


e|--------------------|     
B|-9xx-10xx-12-000000-|     
G|--------------------| X2  
D|--------------------|      
A|--------------------|     
E|--------------------|     

e|-------------------------------------|   
B|-9-9----9-9-9---10-10-10----12-12-12-| 
G|-9-9----9-9-9---9--9--9-----9--9--9--|  
D|-------------------------------------|   
A|-------------------------------------|      
E|-------------------------------------| 


Outro:
Just gradually slide up the fretboard with dead strings until the end of the song    


Order:

Intro
Verse
Chorus
Verse
Chorus
Solo
Verse
Chorus
Outro


| /  slide up
| \  slide down
| h  hammer-on
| p  pull-off
| ~  vibrato
| +  harmonic
| x  Mute note
Suggest correction new What's this?
You can suggest a correction to this tab. Community and Mods will review your correction and vote to approve or reject it.
comments
print report bad tab
5 comments total. Showing first comments.
+2 reply
daniel_tate 22 wrote on January 12 2008, 12:28 pm

This tab is almost accurate, I've been playing it similar to this for a while and have recently been looking at various
youtube videos and listening closely to the album version and believe I have a completely accurate tab.

I'll add
these corrections to a new tab later on so that a correct version exists (without corrections in the comments):

This
chorus part:

e|-555-444-000---------|
B|-------------000000--|
G|---------------------|

D|---------------------|
A|---------------------|
E|---------------------|

should
be:

e|-555-444-------------|
B|---------222-000000--|
G|---------------------|
D|---------------------|

A|---------------------|
E|---------------------|

Also the part leading into the solo and the solo itself is
incorrect (as I hear it):

4th Time:
Chorus:
e|-2-0-0-2-0-0-2-4-0----------------------4-4-2-2-2-2-2-4-0-|

B|-------------------0-0-0-0-0-0-0-0-0-0--------------------|

G|----------------------------------------------------------|

D|----------------------------------------------------------|

A|----------------------------------------------------------|

E|----------------------------------------------------------|


Solo:
e|-7-00-4-00000000000--|
e|-----------000000000--|
B|---------------------| B|-7-00-5-00-444444444--|
G|---------------------| X2
G|----------------------| X2
D|---------------------| D|----------------------|
A|---------------------|
A|----------------------|
E|---------------------| E|----------------------|


e|-4-00-5-00-7-0----------|
e|----------22222222--|
B|---------------00000000-| B|-44444444-----------|
G|------------------------| X3
G|-44444444-----------|
D|------------------------| D|--------------------|
A|------------------------|
A|--------------------|
E|------------------------| E|--------------------|


e|-7-00-4-00000000000--|
e|-----------000000000--|
B|---------------------| B|-7-00-5-00-444444444--|
G|---------------------| X2
G|----------------------| X2
D|---------------------| D|----------------------|
A|---------------------|
A|----------------------|
E|---------------------| E|----------------------|


e|-4-00-5-00-7-0----------|

B|---------------00000000-|
G|------------------------|
D|------------------------|

A|------------------------|
E|------------------------|


e|-4-4----4-4-4---5-5-5---7-7-7--|

B|-4-4----4-4-4---4-4-4---4-4-4--|
G|-4-4----4-4-4---4-4-4---4-4-4--|
D|-------------------------------|

A|-------------------------------|
E|-------------------------------|

That solo is definitely correct; it
sounds spot on and relates to Ryan's fingering on the youtube videos.

Like I say, I'll stick it all in a proper tab
and submit it later.

+1 reply
daniel_tate 22 wrote on January 12 2008, 12:28 pm

This tab is almost accurate, I've been playing it similar to this for a while and have recently been looking at various
youtube videos and listening closely to the album version and believe I have a completely accurate tab.

I'll add
these corrections to a new tab later on so that a correct version exists (without corrections in the comments):

This
chorus part:

e|-555-444-000---------|
B|-------------000000--|
G|---------------------|

D|---------------------|
A|---------------------|
E|---------------------|

should
be:

e|-555-444-------------|
B|---------222-000000--|
G|---------------------|
D|---------------------|

A|---------------------|
E|---------------------|

Also the part leading into the solo and the solo itself is
incorrect (as I hear it):

4th Time:
Chorus:
e|-2-0-0-2-0-0-2-4-0----------------------4-4-2-2-2-2-2-4-0-|

B|-------------------0-0-0-0-0-0-0-0-0-0--------------------|

G|----------------------------------------------------------|

D|----------------------------------------------------------|

A|----------------------------------------------------------|

E|----------------------------------------------------------|


Solo:
e|-7-00-4-00000000000--|
e|-----------000000000--|
B|---------------------| B|-7-00-5-00-444444444--|
G|---------------------| X2
G|----------------------| X2
D|---------------------| D|----------------------|
A|---------------------|
A|----------------------|
E|---------------------| E|----------------------|


e|-4-00-5-00-7-0----------|
e|----------22222222--|
B|---------------00000000-| B|-44444444-----------|
G|------------------------| X3
G|-44444444-----------|
D|------------------------| D|--------------------|
A|------------------------|
A|--------------------|
E|------------------------| E|--------------------|


e|-7-00-4-00000000000--|
e|-----------000000000--|
B|---------------------| B|-7-00-5-00-444444444--|
G|---------------------| X2
G|----------------------| X2
D|---------------------| D|----------------------|
A|---------------------|
A|----------------------|
E|---------------------| E|----------------------|


e|-4-00-5-00-7-0----------|

B|---------------00000000-|
G|------------------------|
D|------------------------|

A|------------------------|
E|------------------------|


e|-4-4----4-4-4---5-5-5---7-7-7--|

B|-4-4----4-4-4---4-4-4---4-4-4--|
G|-4-4----4-4-4---4-4-4---4-4-4--|
D|-------------------------------|

A|-------------------------------|
E|-------------------------------|

That solo is definitely correct; it
sounds spot on and relates to Ryan's fingering on the youtube videos.

Like I say, I'll stick it all in a proper tab
and submit it later.

+1 reply
daniel_tate 22 wrote on January 12 2008, 12:29 pm

Well, the formatting looks a little off don't you think? Sorry!

guest
You may want to rate the tab now too:
select rating
Please do not post tabs as comments. Select "correction" instead!