Oops, an error
Loading. Please wait.

Mirror Kissers Tab

version 1
version 1

Whole song

Interactive

22,266 views 15 this week
4 commentsread comments
1 2 3 4 5
accurate
x 11
add to favorites
launch autoscroll
font size
0
reset
how to read this tab
guitar tuner
Tab Pro tools
  • play this tab
  • loop segment
  • change instrument
  • show fretboard
  • metronome
×
Best way to learn
"Mirror Kissers"
Autoscroll
slow
fast
+/-
esc
set tempo
stop
Contributor
Intro
e-7x7x7x7x7x7x7------|
b-9x9x9x9x9x9x9------|
g-8x8x8x8x8x8x8------|
d-9x9x9x9x9x9x9------|
a--------------------|
e--------------------|

verse
e-7x7x7x7x7--5x5x5x5x5--7x7x7x7x7-|
b-9x9x9x9x9--7x7x7x7x7--9x9x9x9x9-|
g-8x8x8x8x8--6x6x6x6x6--8x8x8x8x8-|
d-9x9x9x9x9--7x7x7x7x7--9x9x9x9x9-|
a---------------------------------|
e---------------------------------|

Bridge at 0.52
e------------7--9-9-7-7-7------------|
b-----7--9---7--7-7-7-7-7------------|
g-8h9--------------------------------|
d------------------------------------|
a------------------------------------|
E------------------------------------|

then back to the verse


Solo at 2.27
e--------------------------------------------------------|
b-17-17-17-19-17-19-17--19--21----------19--21-----------|
g-------------------------------18-16-----------18--16---|
d--------------------------------------------------------|
a--------------------------------------------------------|
E--------------------------------------------------------| play x2

back to the intro chord

e-7x7x7x7x7x7x7------|
b-9x9x9x9x9x9x9------|
g-8x8x8x8x8x8x8------|
d-9x9x9x9x9x9x9------|
a--------------------|

Check out my Cribs guitar tab blog at http://thecribsguitartabs.blogspot.co.uk/
e--------------------|
comments
print report bad tab
4 comments total. Showing first comments.
0 reply
GuilleDCFC wrote on April 2 2009, 06:38 pm

perfect tab

0 reply
ultrasonic wrote on May 8 2009, 03:06 pm

i would say though that you need to make it so that it goes 19 21, instead of 20 ;) thats for the little high pitch riff, other than that great ;)

0 reply
ultrasonic wrote on May 8 2009, 03:07 pm

plus on one of them it goes 19h21 21 :D

I want to post or [tab]
guest
You may want to rate the tab now too:
select rating
Please do not post tabs as comments. Select "correction" instead!