Oops, an error
Loading. Please wait.

Mirror Kissers Bass Tab

version 2
version 2

Whole song

Interactive

926 views 1 this week
1 commentread comment
1 2 3 4 5
2 more votes to show rating
add to favorites
launch autoscroll
font size
0
reset
guitar tuner
Autoscroll
slow
fast
+/-
esc
set tempo
stop
Help us to improve Ultimate-Guitar.com Take our survey!
×
Author
Difficulty
novice
-------------------------------------------------------------------------------
			     Mirror Kisses - The Cribs
-------------------------------------------------------------------------------

Tabbed By : Kitty eater


Tuning: standard

Intro

G|------------------------------------------------------------------------------|
D|------------------------------------------------------------------------------|
A|-----------------5h7-77-7-7777-x4---------------------------------------------|
E|-0-00--0000-x4---------------------3h5-5-55--5-5555---5h7-7-77--7-7777--------|

chorus x2

G|------------------------------------------------------------------------------|
D|------------------------------------------------------------------------------|
A|-5h7-77-7-7777-x4-------------------------------------------------------------|
E|-------------------3h5-5-55--5-5555---5h7-7-77--7-7777------------------------|

Verse

G|------------------------------------------------------------------------------|
D|------------------------------------------------------------------------------|
A|-777777777777777777774444-----------------------------------------------------|
E|--------------------------5555555577777777------------------------------------|

bridge

G|------------------------------------------------------------------------------|
D|------------------------------------------------------------------------------|
A|------------------------------------------------------------------------------|
E|-5-5-5-5-7-7-7-7-5-5-5-5-7-7-7-755555555777777775555555577777777--------------|

G|---------------------------------------------------------------------------|
D|---------------------------------------------------------------------------|
A|-7777--7777--7777--7777--7777--7777--7777--7777--4444--4444--4444--4444----|
E|---------------------------------------------------------------------------|

G|---------------------------------------------------------------------------|
D|---------------------------------------------------------------------------|
A|-4444--4444--4-4-4-4-------------------------------------------------------|
E|---------------------------------------------------------------------------|

outro

G|------------------------------------------------------------------------------|
D|------------------------------------------------------------------------------|
A|-5h7-77-7-7777-x4-------------------------------------------------------------|
E|------------------0-----------------------------------------------------------|


| /  slide up
| \  slide down
| h  hammer-on
| p  pull-off
| ~  vibrato
| +  harmonic
| x  Mute note
===============================================================================
Suggest correction
Give kudos to tab author, rate the tab!
1 2 3 4 5
comments
print report bad tab
1 comment total.
0 reply
grapefruit7 138 Jun 27, 2014 05:35 PM

Lack of accuracy. Clearly wrong.

guest
You may want to rate the tab now too:
select rating
Wanna post a correction for this tab? Suggest correction