Oops, an error
Loading. Please wait.

Moving Pictures Bass Tab

version 1
version 1

Whole song

5,436 views 3 this week
4 commentsread comments
1 2 3 4 5
x 11
add to favorites
launch autoscroll
font size
0
reset
guitar tuner
Autoscroll
slow
fast
+/-
esc
set tempo
stop
Help us to improve Ultimate-Guitar.com Take our survey!
×
Author
Difficulty
novice
Ahoy!

The Cribs - Moving Pictures

Intro
G--------------------------------------------------------------------------|
D--------9-9----11-11----6-6----7-7----7-7—---7-7--------------------------|
A-7-7------------------------------------------------2-2-2/7---------------|
E--------------------------------------------------------------------------|

Main riff (0:07)
G--------------------------------------------------------------------------|
D----------9-99-99--11-1111-1111--6-66-66--7-77-77-7-77-77-7-77-77--9-99-99|
A-7-77-77------------------------------------------------------------------|
E--------------------------------------------------------------------------|

Verse (0:15)
G-----------------------------------------------------------------|
D-----------------------------------------------------------------|
A-77777777-66666666-44444444-22222222-00000000-22222222-77777777--|
E-----------------------------------------------------------------|

-------------|
-------------|
--22222222/7-|
-------------|

G-----------------------------------------------------------------|
D-----------------------------------------------------------------|
A-77777777-66666666-44444444-22222222-00000000-22222222-77777777--|
E-----------------------------------------------------------------|

--------9----|
--9--9-----9-|
-------------|
-------------|

Chorus (0:46) X2
G--------------------------------------------------------------------------|
D----------9-99-99--11-1111-1111--6-66-66--7-77-77-7-77-77-7-77-77--9-99-99|
A-7-77-77------------------------------------------------------------------|
E--------------------------------------------------------------------------|

After Chorus (1:02)
G-------------------------|
D-------------------------|
A-7--------7--------2/7---|
E-------------------------|

Verse 2 (1:06)
G-----------------------------------------------------------------|
D-----------------------------------------------------------------|
A-77777777-66666666-44444444-22222222-00000000-22222222-77777777--|
E-----------------------------------------------------------------|

-------------|
-------------|
--22222222/7-|
-------------|

G-----------------------------------------------------------------|
D-----------------------------------------------------------------|
A-77777777-66666666-44444444-22222222-00000000-22222222-77777777--|
E-----------------------------------------------------------------|

--------9----|
--9--9-----9-|
-------------|
-------------|

Chorus (1:37) X2
G--------------------------------------------------------------------------|
D----------9-99-99--11-1111-1111--6-66-66--7-77-77-7-77-77-7-77-77--9-99-99|
A-7-77-77------------------------------------------------------------------|
E--------------------------------------------------------------------------|

Bridge (1:52)
G---------------------------------------|
D---------------------------------------|
A-7777777777777777----------------------|
E------------------0000000000000077-----|

(2:00)
G---------------------------------------------------------------|
D---------------------------------------------------------------|    X2
A-7-777---7-777---4-444---4-444---0-000---0-000---2-222---2-222-|
E---------------------------------------------------------------|

(2:15)
G---------------------------------------|
D---------------------------------------|
A-7777777777777777----------------------|
E------------------0000000000000077-----|

Chorus (2:23) X4
G--------------------------------------------------------------------------|
D----------9-99-99--11-1111-1111--6-66-66--7-77-77-7-77-77-7-77-77--9-99-99|
A-7-77-77------------------------------------------------------------------|
E--------------------------------------------------------------------------|

Ending (2:54)
G--------------------------------------------------------------------------|
D--------------------------------------------------------------------------|
A-7/2--------7/2--------6-777--6-777-6-777-6-777--------2/7----------------|
E-------------------------------------------------0~~~~~~~~~~~~~~----------|

There we are, rate/comment thanks! :)
Suggest correction
comments
print report bad tab
4 comments total. Showing first comments.
0 reply
JamminBoy 199 Aug 18, 2007 12:53 PM

Crap, I wasn't signed in when I posted this tab >.<
lol It was I who posted the tab, just have to say me glad my first tab is getting good rates so far =] Nothing bad yet lol
Yours and saviour, JamminBoy =D

0 reply
hillsy945 136 Jan 23, 2008 06:53 AM

Pretty damn good if you ask me. Simple yet effective. Cribs are awesome!

0 reply
prt1990 10 Aug 13, 2008 08:53 AM

This is a pretty good tab, but it sounds like the chorus riff changes at the end, and I'm not sure you have the rhythm quite right. But don't ask me to correct it lol.

guest
You may want to rate the tab now too:
select rating
Wanna post a correction for this tab? Suggest correction