Oops, an error
Loading. Please wait.

Moving Pictures Bass Tab

version 2
version 2

Whole song

580 views 1 this week
no commentswrite comment
1 2 3 4 5
3 more votes to show rating
add to favorites
launch autoscroll
font size
0
reset
guitar tuner
Autoscroll
slow
fast
+/-
esc
set tempo
stop
Help us to improve Ultimate-Guitar.com Take our survey!
×
The Cribs - Moving Pictures

This is a tab of the cribs song Moving Pictures, I’ve tabbed it only on the E and A
as this way it you don’t get the ringing sound the other strings give you.
 Tabbed by stevenwilliams7

Intro
G-------------------------------------------------------------------------|
D-------------------------------------------------------------------------|
A---------14-14---16-16---11-11---12-12---12-12---12-12-------------------|
E-12-12---------------------------------------------------7777------------|

Main riff
G-------------------------------------------------------------------------|
D-------------------------------------------------------------------------|
A----------14141414-16161616-11111111-12121212-12121212-12121212-14141414-|
E-12121212----------------------------------------------------------------|

Verse
G-------------------------------------------------------------------------|
D-------------------------------------------------------------------------|
A-77777777-66666666-44444444-22222222-00000000-22222222-77777777-22222222-|
E-------------------------------------------------------------------------|

G--------------------------------------------------------------------------|
D--------------------------------------------------------------------------|
A-77777777-66666666-44444444-22222222-00000000-22222222-77777777-9999111199|
E--------------------------------------------------------------------------|

Chorus X2
G-------------------------------------------------------------------------|
D-------------------------------------------------------------------------|
A----------14141414-16161616-11111111-12121212-12121212-12121212-14141414-|
E-12121212----------------------------------------------------------------|

G-------------------------|
D-------------------------|
A-7--------7--------2/7---|
E-------------------------|

Verse
G-------------------------------------------------------------------------|
D-------------------------------------------------------------------------|
A-77777777-66666666-44444444-22222222-00000000-22222222-77777777-22222222-|
E-------------------------------------------------------------------------|

G--------------------------------------------------------------------------|
D--------------------------------------------------------------------------|
A-77777777-66666666-44444444-22222222-00000000-22222222-77777777-9999111199|
E--------------------------------------------------------------------------|

Chorus X2
G-------------------------------------------------------------------------|
D-------------------------------------------------------------------------|
A----------14141414-16161616-11111111-12121212-12121212-12121212-14141414-|
E-12121212----------------------------------------------------------------|

Bridge
G---------------------------------------|
D---------------------------------------|
A-7777777777777777----------------------|
E------------------0000000000000077-----|

G---------------------------------------------------------------|
D---------------------------------------------------------------|    X2
A-7-777---7-777---4-444---4-444---0-000---0-000---2-222---2-222-|
E---------------------------------------------------------------|

G---------------------------------------|
D---------------------------------------|
A-7777777777777777----------------------|
E------------------0000000000000077-----|

Chorus X4
G-------------------------------------------------------------------------|
D-------------------------------------------------------------------------|
A----------14141414-16161616-11111111-12121212-12121212-12121212-14141414-|
E-12121212----------------------------------------------------------------|

Finnish
G-------------------------------------------------------------------------|
D-------------------------------------------------------------------------|
A-7/2---7/2---11-121212---11-121212-11-121212---11-121212--------2/7------|
E------------------------------------------------------------0------------|
Suggest correction
Give kudos to tab author, rate the tab!
1 2 3 4 5
comments
print report bad tab
guest
You may want to rate the tab now too:
select rating
Wanna post a correction for this tab? Suggest correction