Oops, an error
Loading. Please wait.

On The Floor Tab

683 views 1 this week
no commentswrite comment
1 2 3 4 5
2 more votes to show rating
add to favorites
launch autoscroll
font size
0
reset
how to read this tab
guitar tuner
Autoscroll
slow
fast
+/-
esc
set tempo
stop
Help us to improve Ultimate-Guitar.com Take our survey!
×
-----------------------------------------------------------------------------
                           On The Floor by The Cribs
-----------------------------------------------------------------------------

Tabbed by: PropaDerbyLad
Email: rabid_monkey28@hotmail.com 

Comments and corrections are welcome! Email me if you have any questions or
owt... :)

Tuning: Standard (EADGBe)

Intro: (Overdriven guitar)

e|--11--------14--------11--------|
B|--12-(x32)--12-(x16)--12-(x16)--|
G|--11--------11--------11--------|
D|--------------------------------|
A|--------------------------------|
E|--------------------------------|

Verse: (Overdriven guitar)

e|--11--------14----------|
B|--12-(x16)--12-(x16)----|  
G|--11--------11----------|  (x4)
D|------------------------|
A|------------------------|
E|------------------------|

Pre-chorus: (Overdriven guitar)

e|-----------------------------|
B|-----------------------------|  
G|--99-x-8-888-------6---------|   Repeat this twice
D|--xx-x-x-xxx-(x2)--x-(x16)---|
A|--77-x-6-666-------4---------|
E|-----------------------------|

e|-----------------------------|
B|--99-------------------------|   Play this the 3rd time
G|--99-x-8-888-------6---------|
D|--xx-x-x-xxx-(x2)--x-(x16)---|
A|--77-x-6-666-------4---------|
E|-----------------------------|

e|-----------------------------------------------|   
B|--99-------------------------------------------|   Initially P.M the F#5
G|--99-x-8-888--99-x-8-888---6-------------------|   & then begin to strum
D|--xx-x-x-xxx--xx-x-x-xxx---x-(x16)---4---------|      harder & harder
A|--77-x-6-666--77-x-6-666---4---------4-(x16)---|
E|-------------------------------------2---------|

Chorus: (Overdriven guitar)

e|--11------11---------------------------------|
B|--12-(x8)-11-(x8)-11-11-12-11-7-7-777-777----|   
G|--11------11--------------------8-888-888----|   Repeat 4 times
D|---------------------------------------------|
A|---------------------------------------------|
E|---------------------------------------------|

Pre-chorus: (Overdriven guitar)

e|-----------------------------|-------------------------------------|
B|-----------------------------|--99---------------------------------|
G|--99-x-8-888-------6---------|--99-x-8-888--99-x-8-888---6---------|
D|--xx-x-x-xxx-(x2)--x-(x16)---|--xx-x-x-xxx--xx-x-x-xxx---x-(x16)---|
A|--77-x-6-666-------4---------|--77-x-6-666--77-x-6-666---4---------|
E|-----------------------------|-------------------------------------|

e|-----------------------------|
B|--99-------------------------|
G|--99-x-8-888-------6---------|
D|--xx-x-x-xxx-(x2)--x-(x16)---|
A|--77-x-6-666-------4---------|
E|-----------------------------|

e|--------------------------------------------------|  Initially P.M the F#5
B|--99----------99-----------55---------------------|  & then begin to strum
G|--99-x-8-888--99-x-8-888---66-6-------------------|     harder and then
D|--xx-x-x-xxx--xx-x-x-xxx---xx-x-(x14)---4---------|    slow down to the
A|--77-x-6-666--77-x-6-666---44-4---------4-(x15)---|          break
E|----------------------------------------2---------|

Break: (Clean guitar)

e|--11~-----11--11~-11--------------------------------|
B|--12~---12----11~---11----11-11-12-11-777-7/9-9-9---|
G|--11~-11------11~-----11-----------------------9----|
D|----------------------------------------------------|
A|----------------------------------------------------|
E|----------------------------------------------------|

e|--11~-----11--11~-11--------------------------------------------|
B|--12~---12----11~---11----11-11-12-12-12/16-16-16-14-12-11-77---|
G|--11~-11------11~-----11----------------------------------------|
D|----------------------------------------------------------------|
A|----------------------------------------------------------------|
E|----------------------------------------------------------------|

e|--11~-----11--11~-11----------------------------------|
B|--12~---12----11~---11----11-11-12-11-777-7/9-9-9-----|
G|--11~-11------11~-----11-----------------------9-99---|
D|------------------------------------------------------|
A|------------------------------------------------------|
E|------------------------------------------------------|

e|--11~-----11--11~-11-----------------------------------------------|
B|--12~---12----11~---11----11-11-12-12-12/16-16-16-14-12-11-11-11---|
G|--11~-11------11~-----11-----------------------------------11-11---|
D|-------------------------------------------------------------------|
A|-------------------------------------------------------------------|
E|-------------------------------------------------------------------|

e|--11------11------11---------|
B|--12-(x8)-11-(x8)-12-(x16)---|
G|--11------11------11---------|
D|-----------------------------|
A|-----------------------------|
E|-----------------------------|

(Overdriven guitar)

e|--11------11---------|
B|--12-(x8)-11-(x8)----|
G|--11------11---------|   Repeat 3 times
D|---------------------|
A|---------------------|
E|---------------------|

e|--11------14-------14------------|---------------------------------------|
B|--12-(x2)-12-(x14)-12-(x16)------|--11-11-12-12-12/16-16-16-14-141414~---|
G|--11------11-------11------------|---------------------------------------|
D|---------------------------------|---------------------------------------|
A|-------------------strum harder--|---------------------------------------|
E|-------------------|---------->--|---------------------------------------|

Chorus: (Overdriven guitar)

e|--11------11---------------------------------|
B|--12-(x8)-11-(x8)-11-11-12-11-7-7-777-777----|   
G|--11------11--------------------8-888-888----|   Repeat 3 times
D|---------------------------------------------|
A|---------------------------------------------|
E|---------------------------------------------|

e|--11------11--------------------6------------|
B|--12-(x8)-11-(x8)-11-11-12-11-7-7-777-777----|   
G|--11------11--------------------8 888-888----|
D|---------------------------------------------|
A|---------------------------------------------|
E|---------------------------------------------|

Outro: (Overdriven guitar)

e|--11--------------------/18-181818-181818-1818--------------------------|
B|--12-(x16)-11-11-12-12------------------------1414-1414-16-161616-1616--|  
G|--11--------------------------------------------------------------------|
D|------------------------------------------------------------------------|
A|------------------------------------------------------------------------|
E|------------------------------------------------------------------------|

e|----------------------------------------|-------------------------------|
B|-11-11-12-12-12/16-16-16-14-12-14-16-14-|--1414-1414-16-161616-1616-----|
G|----------------------------------------|-------------------------------|
D|----------------------------------------|-------------------------------|
A|----------------------------------------|-------------------------------|
E|----------------------------------------|-------------------------------|

e|---------------------------|-----------------------------|
B|-1414-1414-16-161616-1616--|--1414-1414-16-161616-1616---|
G|-1313-1313-15-151515-1515--|-----------------------------|
D|---------------------------|-----------------------------|
A|---------------------------|-----------------------------|
E|---------------------------|-----------------------------|

e|--------11----11----11~~~v----|
B|--11--11----11--11--11~~~v----|
G|----11----11--------11~~~v----|   ~ = Let ring
D|------------------------------|
A|------------------------------|
E|------------------------------|

| /  slide up
| \  slide down
| h  hammer-on
| p  pull-off 
| v  vibrato
| +  harmonic
| x  Mute note
=============================================================================
Suggest correction
Give kudos to tab author, rate the tab!
1 2 3 4 5
comments
print report bad tab
guest
You may want to rate the tab now too:
select rating
Wanna post a correction for this tab? Suggest correction