Oops, an error
Loading. Please wait.

Our Bovine Public Bass Tab

version 1
version 1

Whole song

Interactive

2,261 views 1 this week
no commentswrite comment
1 2 3 4 5
3 more votes to show rating
add to favorites
launch autoscroll
font size
0
reset
guitar tuner
Autoscroll
slow
fast
+/-
esc
set tempo
stop
Help us to improve Ultimate-Guitar.com Take our survey!
×
Difficulty
novice
Great great song, really easy on bass... Shoulda been done earlier 

verse x2 (Did they think i'd have to chose...)
G|-------------------------------------|
D|-------------------------------------|
A|-----------------------6-666666777766|
E|-777-7-77-777-7-77-777---------------|

chorus x3 (To those who'd never exist without being generic...)
G|-------------------------|
D|-------------------------|
A|-7777-77-777-2222--------|
E|-------------------22-222|

chorus x1 (You would never exist without us...)
G|------------|
D|------------|
A|-7777-99-999|
E|------------|

bridge x2 (I've loved, what you say  means nothing...)
G|------------------------------------------------------|
D|------------------------------------------------------|
A|------------------------------------------------------|
E|-7-77-77-777-9-99-99-999-11-1111-1111-1212121212121212|

outro x1
G|-----------------------------|
D|-----------------------------|
A|-----------------------------|
E|-7-77-777-7-77-777-7-77-777-7|



order:
verse
chorus
verse
chorus
bridge
verse
chorus
outro

Really good song, rhythm is easy to work out... have fun!
Suggest correction
Give kudos to tab author, rate the tab!
1 2 3 4 5
comments
print report bad tab
guest
You may want to rate the tab now too:
select rating
Wanna post a correction for this tab? Suggest correction