Oops, an error
Loading. Please wait.

Our Bovine Public Tab

version 1
version 1

Whole song

Interactive

5,354 views 9 this week
no commentswrite comment
1 2 3 4 5
x 3
add to favorites
launch autoscroll
font size
0
reset
how to read this tab
guitar tuner
Autoscroll
slow
fast
+/-
esc
set tempo
stop
Help us to improve Ultimate-Guitar.com Take our survey!
×
Author
Difficulty
Tabbed by:dan
Email:danielfisher92@aol.com

Tuning:standard
intro/verse

e|14--14--1111------14--1411111111111212121212-------------------------------|
B|--12--121212--2x----12--12121212121212121212-------------------------------|
G|---------------------------------------------------------------------------|
D|---------------------------------------------------------------------------|
A|---------------------------------------------------------------------------|
E|---------------------------------------------------------------------------|
chorus

e|-11111212141411111212141412121111111212------------------------------------|
B|-12121212121212121212121212121212121212------------------------------------|
G|---------------------------------------------------------------------------|
D|---------------------------------------------------------------------------|
A|---------------------------------------------------------------------------|
E|---------------------------------------------------------------------------|
bridge

e|-7-----11-12-14-11-9---9-11-12-11-9-11-7-11/7 11/7-------------------------|
B|-7-------------------------------------------------------------------------|
G|---------------------------------------------------------------------------|
D|---------------------------------------------------------------------------|
A|---------------------------------------------------------------------------|
E|---------------------------------------------------------------------------|

| /  slide up
| \  slide down
| h  hammer-on
| p  pull-off
| ~  vibrato
| +  harmonic
| x  Mute note
===============================================================================
Suggest correction
Give kudos to tab author, rate the tab!
1 2 3 4 5
comments
print report bad tab
guest
You may want to rate the tab now too:
select rating
Wanna post a correction for this tab? Suggest correction