Oops, an error
Loading. Please wait.

Our Bovine Public Bass Tab

version 2
version 2

Whole song

Interactive

2,560 views 1 this week
2 commentsread comments
1 2 3 4 5
please rate
add to favorites
launch autoscroll
font size
0
reset
guitar tuner
Autoscroll
slow
fast
+/-
esc
set tempo
stop
Help us to improve Ultimate-Guitar.com Take our survey!
×
Great song by one of my favorite bands. There were a couple other tabs on the net, but 
be frank, they all sucked. Enjoy!

Tuning: Standard

Intro/Verse
G|-------------------------------------------------------------------|
D|-------------------/6666666622222244-------------------------------|
A|-2-22-222-2-22-222-------------------------------------------------|
E|-------------------------------------------------------------------|

Chorus
G|-------------------------------------------------------------------|
D|-1h2222222-1h2222222-----------------------------------------------|
A|---------------------22222222--------------------------------------|
E|-------------------------------2--22-------------------------------|

End of Chorus (You would never exist without us)
G|-------------------------------------------------------------------|
D|-1h22222-22-4------------------------------------------------------|
A|-------------------------------------------------------------------|
E|-------------------------------------------------------------------|

Bridge
G|-------------------------------------------------------------------|
D|-------------------------------------------------------------------|
A|-22-222-222-222-44-444-444-444-77-7-7-99-9-9-22-22-2---------------|
E|-------------------------------------------------------------------|

G|-------------------------------------------------------------------|
D|-------------------------------------------------------------------|
A|-22--22--22--22-44--44--44--44-577777777-99999999-1414141414141414-|
E|----2---2---2------4---4---4---------------------------------------|

End
G|-------------------------------------------------------------------|
D|-------------------------------------------------------------------|
A|-2-22-222-2-22-222-2-22-222-2--------------------------------------|
E|-------------------------------------------------------------------|

Order
Intro/Verse x2
Chorus x3
End of Chorus x1
Intro/Verse x2
Chorus x3
End of Chorus x1
Bridge x1
Intro/Verse x2
Chorus x3
End of Chorus x1
End x1

Any correction email bpugh@student.oakschristian.org
Suggest correction
Give kudos to tab author, rate the tab!
1 2 3 4 5
comments
print report bad tab
2 comments total.
0 reply
matty99 276 wrote on March 4 2009, 05:45 pm

Intro/Verse
G|----------------------------------------------------------------|
D|--------------------------------------/6666666622222244---------|
A|-------2-22-------2-22-------2-22-222---------------------------|
E|2-2-2-------2-2-2------2-2-2------------------------------------|

0 reply
matty99 276 wrote on March 4 2009, 05:46 pm

wait...i did that one too many times.

guest
You may want to rate the tab now too:
select rating
Wanna post a correction for this tab? Suggest correction