Oops, an error
Loading. Please wait.

Saturday Night Facts Of Life Tab

version 1
version 1

Whole song

971 views 1 this week
no commentswrite comment
1 2 3 4 5
2 more votes to show rating
add to favorites
launch autoscroll
font size
0
reset
how to read this tab
guitar tuner
Autoscroll
slow
fast
+/-
esc
set tempo
stop
Help us to improve Ultimate-Guitar.com Take our survey!
×
Author
Difficulty
novice
-------------------------------------------------------------------------------
                        Saturday Night Facts of Life - The Cribs
-------------------------------------------------------------------------------
Tabbed by: Bradders
Email: bradders_23@yahoo.co.uk

Tuning: Standard

e|---------------------------|
B|------------------7--------|
G|-4--7--4-7--4--7-----7-4-7-| x4
D|---------------------------|
A|---------------------------|
E|---------------------------|

e|------------------------------------------------------|
B|-7----------5-----7--7-7-7-7----------5-----10--8-7-7-|
G|----7--4-7-----7--7--7-7-7----7--4-7-----7------------|
D|------------------------------------------------------|
A|------------------------------------------------------|
E|------------------------------------------------------|

Repeat throughout the song.
Suggest correction
Give kudos to tab author, rate the tab!
1 2 3 4 5
comments
print report bad tab
guest
You may want to rate the tab now too:
select rating
Wanna post a correction for this tab? Suggest correction