Oops, an error
Loading. Please wait.

Shoot The Poets tab

version 2
version 2

Whole song

Interactive

4,827 views 6 this week
4 commentsread comments
1 2 3 4 5
x 5
add to favorites
×
Save as Personal and add changes to this tab that will be seen only by you. Learn more ›
×
You can save this tab as Personal to edit and correct it or add notes. All changes will be seen only by you. Learn more »
launch autoscroll
font size
0
reset
how to read this tab
guitar tuner
edit
Autoscroll
slow
fast
+/-
esc
set tempo
stop
Author
Difficulty
e|-------------------------------------------------------------------------|
B|-------------------------------------------------------------------------|
G|--------6-5--5-6-6-5--6-5----------6-5--5-6-6-5--6-5---------------------|
D|-----------6--------6----6------------6--------6----6--------------------|
A|----4--------------------------------------------------------------------|
E|-------------------------------6-----------------------------------------|

e|-------------------------------------------------------------------------|
B|-------------------------------------------------------------------------|
G|--------6-5---5-6------6s5---5-6--------6-5--5-6-6-5--6-5----------------|
D|------------6-------------6-6--------------6--------6----6---------------|
A|------------------------------------4------------------------------------|
E|---2---------------4-----------------------------------------------------|

            
            
Suggest correction
Creating personal tab
Creating personal tab
You can edit any tab online and save it as your Personal.

You can edit, replace or remove any tab part or add personal notes – all changes will be seen only by you.

Personal tabs can be accessed anytime from any device, even offline.
Learn more »
comments
print report bad tab
4 comments total. Showing first comments.
0 reply
l2wis 40 Sep 16, 2007 11:07 AM

hi thanks for posting this tab, i really liked it! I play in half step down tuning and found this this song sounds great in it because many of the notes are open strings, a string above if that makes any sense. If anyones interested i cud tab it out.

0 reply
naphtha74 385 Nov 28, 2007 03:49 AM

I thought that this song would work better half a step down too

0 reply
hillsy945 136 Jan 10, 2008 12:41 AM

l2wis - u shud deffo tab it...

guest
You may want to rate the tab now too:
select rating
Wanna post a correction for this tab? Suggest correction