Oops, an error
Loading. Please wait.

Shoot The Poets tab

version 3
version 3

Whole song

Interactive

5,849 views 3 this week
2 commentsread comments
1 2 3 4 5
x 5
add to favorites
×
Save as Personal and add changes to this tab that will be seen only by you. Learn more ›
×
You can save this tab as Personal to edit and correct it or add notes. All changes will be seen only by you. Learn more »
launch autoscroll
font size
0
reset
how to read this tab
guitar tuner
edit
Autoscroll
slow
fast
+/-
esc
set tempo
stop
Author
-------------------------------------------------------------------------------
                             Shoot the Poets - The Cribs
-------------------------------------------------------------------------------
Tabbed by: Bradders
Email: bradders_23@yahoo.co.uk

Tuning: Standard

Thanks to Cribslover from the Cribs forum for help with the solo!

This is the main riff, repeated throughout the verse and intro.
It changes slightly pretty much every time, but it's not worth tabbing every 
single 
note.

Been perfecting this for months so I'm pretty sure it's spot on now.

Capo on the second fret (frets NOT relative to capo).

e|----------------------------------------------|
B|----2------2-----2---------2------2----2------|
G|------5------5-----5--5------5------5----5--5-|
D|--------3-----3-----3----------3-----3----3---|
A|-4-------4----------------------4-------------|
E|------------------------6---------------------|

e|----------------------------------------------|
B|----2------2-2-----2--2--2------2----2--------|
G|------5-------5-----5------5------5----5--5---|
D|--------3-------3------------3-----3----3-----|
A|---------4-------------4------4---------------|
E|-2----------4---------------------------------|

or without a capo you can play it like this:

e|----------------------------------------------|
B|----------------------------------------------|
G|----6-5----6-5---6-5--5----6-5----6-5--6-5--5-|
D|--------3-----3-----3----------3-----3----3---|
A|-4-------4----------------------4-------------|
E|------------------------6---------------------|

e|----------------------------------------------|
B|----------------------------------------------|
G|----6-5----6-65----65-6--6-5----6-5--6-5--5---|
D|--------3-------3------------3-----3----3-----|
A|---------4-------------4------4---------------|
E|-2----------4---------------------------------|

and so on throughout the tab, just use 6th fret of G string instead of 2nd fret of B.

Chorus

e|----------------------------------------------|
B|----2------2--2-------2---2------2--2-------2-|
G|------5--------55--55-------5--------55--55---|
D|--------3---------------------3---------------|
A|---------4---------------------4--------------|
E|-5----------4----------3----------2-----------|

e|-5--5-5--5-5--5-5--5-5--5-5--5-5--5---2--2-2--2-2--2-2--2-2--2-2--2-2--2---|
B|-2--2-2--2-2--2-2--2-2--2-2--2-2--2---4--4-4--4-4--4-4--4-4--4-4--4-4--4---|
G|-2--2-2--2-2--2-2--2-2--2-2--2-2--2---4--4-4--4-4--4-4--4-4--4-4--4-4--4---|
D|-2--2-2--2-2--2-2--2-2--2-2--2-2--2---4--4-4--4-4--4-4--4-4--4-4--4-4--4---|
A|--------------------------------------2--2-2--2-2--2-2--2-2--2-2--2-2--2---|
E|---------------------------------------------------------------------------|

Solo

e|-----------------------------------------------------------------------|
B|-7/9------9/11--11-11--11-11-----11/14--14-14--14-13--------13--14--13-|
G|------10---------------------10----------------------10--10---10--10---|
D|-----------------------------------------------------------------------|
A|-----------------------------------------------------------------------|
E|-----------------------------------------------------------------------|

e|----------------------------------------------------------8--9--11--8--|
B|-----------11--9-11--11/13-13-11-11-9-11------9--11--9-----------------|
G|--10p9-8--------------------------------8h9-10-10-----10---10-10--10---|
D|-----------------------------------------------------------------------|
A|-----------------------------------------------------------------------|
E|-----------------------------------------------------------------------|

e|-------------------------------------------------------------|
B|-14----14----14--14--14--16-16-16-14-14-14-18-18-18-14-14-14-|
G|-13----13----13--13--13--13-13-13-13-13-13-13-13-13-13-13-13-|
D|-------------------------------------------------------------|
A|-------------------------------------------------------------|
E|-------------------------------------------------------------|

e|-------------------------------------------------------------|
B|-------------------------------------------------------------|
G|-15----15----15--15--15--17-17-17-15-15-15-19-19-19-15-15-15-|
D|-15----15----15--15--15--15-15-15-15-15-15-15-15-15-15-15-15-|
A|-------------------------------------------------------------|
E|-------------------------------------------------------------|

e|-------------------------------------------------------------|
B|-------------------------------------------------------------|
G|-11----11----11--11--11--13-13-13-11-11-11-15-15-15-11-11-11-|
D|-11----11----11--11--11--11-11-11-11-11-11-11-11-11-11-11-11-|
A|-------------------------------------------------------------|
E|-------------------------------------------------------------|

e|-------------------------------------------------------------|
B|-------------------------------------------------------------|
G|-13----13----13--13--13--13-15-13-15-------------------------|
D|-13----13----13--13--13--13-13-13-13-------------------------|
A|-------------------------------------------------------------|
E|-------------------------------------------------------------|

During the last chorus it sounds like these chords are played over the riff.

e|------------------------------------|
B|------------------------------------|
G|-6-6-6-6--5-5-5-5--4-4-4-4--3-3-3-3-|
D|-7-7-7-7--6-6-6-6--5-5-5-5--4-4-4-4-|
A|-7-7-7-7--6-6-6-6--5-5-5-5--4-4-4-4-|
E|-5-5-5-5--4-4-4-4--3-3-3-3--2-2-2-2-|

Either that or it's just loud bass.

Outro

e|--------------------------------------------------------|
B|----2------2-----2---------2------2----2----------------|
G|------5------5-----5--5------5------5----5--5-----------|
D|--------3-----3-----3----------3-----3----3-------------|
A|-4-------4----------------------4-----------------------|
E|------------------------6-------------------------------|

e|--------------------------------------------------------|
B|----2------2-2-----2--2--2------2/4--4-4-4/6---6--6--6--|
G|------5-------5-----5------5----------------------------|
D|--------3-------3------------3--------------------------|
A|---------4-------------4------4-------------------------|
E|-2----------4-------------------------------------------|

e|--------------------------------------------------------|
B|----2------2-----2---------2------2----2----------------|
G|------5------5-----5--5------5------5----5--5-----------|
D|--------3-----3-----3----------3-----3----3-------------|
A|-4-------4----------------------4-----------------------|
E|------------------------6-------------------------------|

e|-------------------------------------------4------------|
B|----2------2-2-----2--2--2------2----2-----6------------|
G|------5-------5-----5------5------5----5---5------------|
D|--------3-------3------------3-----3----3--6------------|
A|---------4-------------4------4------------4------------|
E|-2----------4-------------------------------------------|

| /  slide up
| \  slide down
| h  hammer-on
| p  pull-off
| ~  vibrato
| +  harmonic
| x  Mute note
===============================================================================

            
            
Suggest correction
Creating personal tab
Creating personal tab
You can edit any tab online and save it as your Personal.

You can edit, replace or remove any tab part or add personal notes – all changes will be seen only by you.

Personal tabs can be accessed anytime from any device, even offline.
Learn more »
comments
print report bad tab
2 comments total.
0 reply
The-Kicks 313 May 20, 2008 07:03 AM

**** the other versions of this tab, yours is the only decent ones

0 reply
The-Kicks 313 May 20, 2008 07:04 AM

decent one* even. LONG LIVE THE CRIBS

guest
You may want to rate the tab now too:
select rating
Wanna post a correction for this tab? Suggest correction