Oops, an error
Loading. Please wait.

Shoot The Poets tab

version 5
version 5

Whole song

Interactive

163 views 1 this week
no commentswrite comment
1 2 3 4 5
3 more votes to show rating
add to favorites
×
Save as Personal and add changes to this tab that will be seen only by you. Learn more ›
×
You can save this tab as Personal to edit and correct it or add notes. All changes will be seen only by you. Learn more »
launch autoscroll
font size
0
reset
how to read this tab
guitar tuner
edit
Autoscroll
slow
fast
+/-
esc
set tempo
stop
Author
ok so idk what the tuning is called but i had to tab this for my alevel music and thought at since there isnt
a correct tab anywhere on the internet i may as well but it on here. 
(i did this by ear and from watching Ryan play it himself, and my mate helped me out so it may not be 100% 
right but im pretty sure this is)
 
no capo 


[Verse]

C#|-----0-----------0--------0--------0------0--------0--------0--------0-|
G#|--------4-----------4--------4--------------4--------4--------4--------|
F |-----------0-----------0--------0--------------0--------0--------0-----|
C#|--0-----------0--------------------------------------------------------|
F#|--------------------------------------4-----------4--------------------|
X |-----------------------------------------------------------------------|

C#|-----0-----------0------0-----0--0------0-------0-----0----------------|
A#|--------2-----------------2----2-----------4------4-----4--------------|
F |-----------0----------------0----------------0------0-----0------------| x4
C#|--------------------------------------0--------0-----------------------|
G#|--0-----------0-------2------------------------------------------------|
X |-----------------------------------------------------------------------|


[chorus]

C#|-----0-0-0---------------0-0-0-------------0-0-0---------0-0-0---------|
G#|-----4-4-4---------------4-4-4-------------4-4-4---------4-4-4---------|
F |-----0-0-0---------------0-0-0-------------0-0-0---------0-0-0---------|
C#|-----0-0-0---------------0-0-0-------------0-0-0---------0-0-0---------|
F#|--4-----------------3-----------------2----------------0---------------|
X |-----------------------------------------------------------------------|

C#|--2/4-4-4-4-4----4/6--6-6-6-6---------------|
G#|--2/4-4-4-4-4----4/6--6-6-6-6---------------|
F |--2/4-4-4-4-4----4/6--6-6-6-6---------------|
C#|--------------------------------------------|
F#|--------------------------------------------|
X |--------------------------------------------|

 
now it was really hard to tab this where it makes sense but if you know the song you should get it 

[Solo]

C#|--4/6-4-4-6/9-9-9-9-4—9/12-12-12-12-11----11--12--11---------9---7-9-9/11-11--|
G#|--------------------------------------9-9---9---9---9-9/7--77--7--------------|
F |------------------------------------------------------------------------------|
C#|------------------------------------------------------------------------------|
F#|------------------------------------------------------------------------------|
X |------------------------------------------------------------------------------|

                                                             X3 x3 x3 x3 x3
C#|--9/7-7h9-------7---9-7---7---11---12---14---11----12-12--12-14-12-16-12------|
G#|----------7h8h9---9-----9--------9----9----9----9--12-12--12-12-12-12-12------|
F |---------------------------------------------------12-12--12-12-12-12-12------|
C#|------------------------------------------------------------------------------|
F#|------------------------------------------------------------------------------|
X |------------------------------------------------------------------------------|

            X3 x3 x3 x3 x3         x3 x3 x3 x3 x3                           
C#|--12-12—-12-14-12-16-12--12-12--12-14-12-16-12--11-11-11--12-11-12-11-12-11-12-|
G#|--14-14--14-14-14-14-14--10-10--10-10-10-10-10--12-12-12--12----12----12----12-|
F |--12-12--12-12-12-12-12--10-10--10-10-10-10-10--10-10-10--10----10----10----10-|
C#|-------------------------------------------------------------------------------|
F#|-------------------------------------------------------------------------------|
X |-------------------------------------------------------------------------------|


Suggest correction
Creating personal tab
Creating personal tab
You can edit any tab online and save it as your Personal.

You can edit, replace or remove any tab part or add personal notes – all changes will be seen only by you.

Personal tabs can be accessed anytime from any device, even offline.
Learn more »
Give kudos to tab author, rate the tab!
1 2 3 4 5
comments
print report bad tab
guest
You may want to rate the tab now too:
select rating
Wanna post a correction for this tab? Suggest correction