Oops, an error
Loading. Please wait.

The Watch Trick Tab

version 1
version 1

Intro

Whole song

2,201 views 6 this week
no commentswrite comment
1 2 3 4 5
excellent!
x 4
add to favorites
launch autoscroll
font size
0
reset
how to read this tab
guitar tuner
Tab Pro tools
  • play this tab
  • loop segment
  • change instrument
  • show fretboard
  • metronome
Autoscroll
slow
fast
+/-
esc
set tempo
stop
Contributor
Difficulty
intermediate
-------------------------------------------------------------------------------
                             The Watch Trick – The Cribs
-------------------------------------------------------------------------------
Tabbed by:Quinnyyy
Email:quinnyyy@hotmail.co.uk

Tuning:Standard

Intro and first verse

e|------------9--9------------9-------------2--2------4--4------------------|
B|-------10--10--10-------7---7-\---5----3--3--3---5--5--5------------------|
G|--------------------------------------------------------------------------|
D|--------------------------------------------------------------------------|
A|--------------------------------------------------------------------------|
E|--------------------------------------------------------------------------|


e|------------9--9------------9-------------2--2------4--4--|       x8
B|-------10--10--10-------7---7-\---5----3--3--3---5--5--5--|
G|----------------------------------------------------------|
D|----------------------------------------------------------|
A|----------------------------------------------------------|
E|----------------------------------------------------------|

. Bridge                                 . Chorus


e|------4--4------4--4------5--5---------------------12----------------12------|
B|---5--5--5---6--6--6---7--7--7---7---/--14--12--14----14--14--12—14----------|
G|-----------------------------------------------------------------------------|
D|-----------------------------------------------------------------------------|
A|-----------------------------------------------------------------------------|
E|-----------------------------------------------------------------------------|

Then repeat verse 4 times before again the bridge then...


e|--------------12------------------12--------------------------------12----|
B|---14--12--14-----14—-14--12-—14-----14---------------14-14--12--14---14--|
G|----------------------------------------14--~14-14-14---------------------|
D|--------------------------------------------~14-14-14---------------------|
A|--------------------------------------------------------------------------|
E|--------------------------------------------------------------------------|

e|-----------------------------------12---------------------------------12-------|
B|-------------------14-14-14--12--14----14-------------14-14-14--12--14---------|
G|---14--~14-14-14-------------------------14-~14-14-14--------------------------|
D|-------~14-14-14----------------------------~14-14-14--------------------------|
A|-------------------------------------------------------------------------------|
E|-------------------------------------------------------------------------------|

e|------------------12----------------12------12----------------------------|
B|---14--14--12--14----14--14--12--14----14---------------------------------|
G|------------------------------------------------------14-~14-14-14-14-----|
D|---------------------------------------------------------~14-14-14-14-----|
A|--------------------------------------------------------------------------|
E|--------------------------------------------------------------------------|

| /  slide up
| \  slide down
| h  hammer-on
| p  pull-off
| ~  vibrato
| +  harmonic
| x  Mute note
===============================================================================
comments
print report bad tab
I want to post or [tab]
guest
You may want to rate the tab now too:
select rating
Please do not post tabs as comments. Select "correction" instead!