Oops, an error
Loading. Please wait.

Things You Should Be Knowing Tab

64 views 1 this week
no commentswrite comment
1 2 3 4 5
3 more votes to show rating
add to favorites
launch autoscroll
font size
0
reset
how to read this tab
guitar tuner
Autoscroll
slow
fast
+/-
esc
set tempo
stop
Help us to improve Ultimate-Guitar.com Take our survey!
×
Author
Difficulty
Tabbed by: the_watch_trick
E-mail: k.borowski@live.co.uk

[Intro]
e|-0~--------------------------------------------------------|
B|-4~--------------------------------------------------------|
G|-----4-x-4-x-4--3-3--3-3-3-3--4-x-4-x-4--3-3--3-3-3-3------|
D|-----5-x-5-x-5--4-4--4-4-4-4--5-x-5-x-5--4-4--4-4-4-4------|
A|-----5-x-5-x-5--4-4--4-4-4-4--5-x-5-x-5--4-4--4-4-4-4------|
E|-----------------------------------------------------------|

[Verse 1] (Quick notes, don't let ring)
e|---------------------------------7-7-7-7-7-7-7-7-7-7-7-7------|
B|---------------------------------7-7-7-7-7-7-7-7-7-7-7-7------|
G|-4-4-4-4-4-4-4-4-9-9-9-9-9-9-9-9-7-7-7-7-7-7-7-7-7-7-7-7------|
D|-5-5-5-5-5-5-5-5-x-x-x-x-x-x-x-x------------------------------|
A|-5-5-5-5-5-5-5-5-7-7-7-7-7-7-7-7------------------------------|
E|--------------------------------------------------------------|

[Chorus]
If you won't let me find you..
e|----------------------------------------------------------------------------1/7\1--|
B|----------------------------------------------------------------------------1/7\1--|
G|----------------5-5-5-5-5-5-5-5-4-4-4-4-4-4-4-4-9-9-9-9-9-9-9-9-7-7-7-7-7-7-1/7\1--|
D|----------------x-x-x-x-x-x-x-x-x-x-x-x-x-x-x-x-x-x-x-x-x-x-x-x-x-x-x-x-x-x--------|
A|----------------3-3-3-3-3-3-3-3-2-2-2-2-2-2-2-2-7-7-7-7-7-7-7-7-5-5-5-5-5-5--------|
E|-----------------------------------------------------------------------------------|

[Verse 2]
e|---------------------------------7-7-7-7-7-7-7-7-7-7-7-7------|
B|---------------------------------7-7-7-7-7-7-7-7-7-7-7-7------|
G|-4-4-4-4-4-4-4-4-9-9-9-9-9-9-9-9-7-7-7-7-7-7-7-7-7-7-7-7------|
D|-5-5-5-5-5-5-5-5-x-x-x-x-x-x-x-x------------------------------|
A|-5-5-5-5-5-5-5-5-7-7-7-7-7-7-7-7------------------------------|
E|--------------------------------------------------------------|

[Chorus]
You won't find a friend who...
e|----------------------------------------------------------------5/7-5/7-5/7-7-7--7--7--|
B|----------------------------------------------------------------5/7-5/7-5/7-7-7--7--7--|
G|----------------5-5-5-5-5-5-5-5-4-4-4-4-4-4-4-4-9-9-9-9-9-9-9-9------------------------|
D|----------------x-x-x-x-x-x-x-x-x-x-x-x-x-x-x-x-x-x-x-x-x-x-x-x------------------------|
A|----------------3-3-3-3-3-3-3-3-2-2-2-2-2-2-2-2-7-7-7-7-7-7-7-7------------------------|
E|---------------------------------------------------------------------------------------|

[Break]                                                                 Tremelo up the fretboard
e|--------------------------------------------------------------------------1/19--|
B|--------------------------------------------------------------------------1/19--|
G|-4-x-4-x-4--3-3--3-3-3-3--4-x-4-x-4--3-3--3-3-3-3--4-x-4-x-4--3-3--3-3-3--------|
D|-5-x-5-x-5--4-4--4-4-4-4--5-x-5-x-5--4-4--4-4-4-4--5-x-5-x-5--4-4--4-4-4--------|
A|-5-x-5-x-5--4-4--4-4-4-4--5-x-5-x-5--4-4--4-4-4-4--5-x-5-x-5--4-4--4-4-4--------|
E|--------------------------------------------------------------------------------|

[Verse 3]
e|---------------------------------7-7-7-7-7-7-7-7-7-7-7-7------|
B|---------------------------------7-7-7-7-7-7-7-7-7-7-7-7------|
G|-4-4-4-4-4-4-4-4-9-9-9-9-9-9-9-9-7-7-7-7-7-7-7-7-7-7-7-7------|
D|-5-5-5-5-5-5-5-5-x-x-x-x-x-x-x-x------------------------------|
A|-5-5-5-5-5-5-5-5-7-7-7-7-7-7-7-7------------------------------|
E|--------------------------------------------------------------|

[Chorus]
If you won't let me find you..
e|----------------------------------------------------------------------------1/7\1--|
B|----------------------------------------------------------------------------1/7\1--|
G|----------------5-5-5-5-5-5-5-5-4-4-4-4-4-4-4-4-9-9-9-9-9-9-9-9-7-7-7-7-7-7-1/7\1--|
D|----------------x-x-x-x-x-x-x-x-x-x-x-x-x-x-x-x-x-x-x-x-x-x-x-x-x-x-x-x-x-x--------|
A|----------------3-3-3-3-3-3-3-3-2-2-2-2-2-2-2-2-7-7-7-7-7-7-7-7-5-5-5-5-5-5--------|
E|-----------------------------------------------------------------------------------|

[Verse 4]
e|---------------------------------7-7-7-7-7-7-7-7-7-7-7-7------|
B|---------------------------------7-7-7-7-7-7-7-7-7-7-7-7------|
G|-4-4-4-4-4-4-4-4-9-9-9-9-9-9-9-9-7-7-7-7-7-7-7-7-7-7-7-7------|
D|-5-5-5-5-5-5-5-5-x-x-x-x-x-x-x-x------------------------------|
A|-5-5-5-5-5-5-5-5-7-7-7-7-7-7-7-7------------------------------|
E|--------------------------------------------------------------|

[Chorus]
You won't find a friend who...
e|----------------------------------------------------------------5/7-5/7-5/7-7-7--7--7--|
B|----------------------------------------------------------------5/7-5/7-5/7-7-7--7--7--|
G|----------------5-5-5-5-5-5-5-5-4-4-4-4-4-4-4-4-9-9-9-9-9-9-9-9------------------------|
D|----------------x-x-x-x-x-x-x-x-x-x-x-x-x-x-x-x-x-x-x-x-x-x-x-x------------------------|
A|----------------3-3-3-3-3-3-3-3-2-2-2-2-2-2-2-2-7-7-7-7-7-7-7-7------------------------|
E|---------------------------------------------------------------------------------------|

[Break]                                                                                
                                                                                        Tremelo down fretboard
e|-7-7-7-5--7--7-7-7-5-7-10-10--7-7-7-5-7-10-10--7-5--7---5-5-5-5-5-5--5-5-5-5-5-5--5-5------------|
B|-7-7-7-7--7--7-7-7-7-7--------7-7-7-7-7--7--7--7-7--7---7-7-7-5-5-5--7-7-7-5-5-5--7-5------------|
G|-------------------------------------------------------------------------------------------------|
D|----------------------------------------------------------------------------------------9/1------|
A|-------------------------------------------------------------------------------------------------|
E|-------------------------------------------------------------------------------------------------|

[Solo]                                                                                   
                                                                                            short notes
e|------------------------------------------------------------------------------------------------------|
B|------------------------------------------------------------------------------------------------------|
G|---------------7-9-9-7-9/11--11--9--7-7--7-7-7-7--9--9-9--9-9-9-7-------------------------------------|
D|-9--9-9--7-7-9----------------------------------------------------9--9-9-7--9--9-9--9-9-9--9--9--9--9-|
A|------------------------------------------------------------------------------------------------------|
E|------------------------------------------------------------------------------------------------------|

e|-------5--7--5-----------------5--7--5-------------------------------------|
B|-7--------------5-5-7-7--7-------------5-5-7-7-----------------------------|
G|-9b^11-------------------9b^11-----------------9~--9-9--9--9--9--9--9-9-9--|
D|---------------------------------------------------x-x--x--x--x--x--x-x-x--|
A|---------------------------------------------------7-7--7--7--7--7--7-7-7--|
E|---------------------------------------------------------------------------|

[Verse 5]
e|---------------------------------7-7-7-7-7-7-7-7-7-7-7-7------|
B|---------------------------------7-7-7-7-7-7-7-7-7-7-7-7------|
G|-4-4-4-4-4-4-4-4-9-9-9-9-9-9-9-9-7-7-7-7-7-7-7-7-7-7-7-7------|
D|-5-5-5-5-5-5-5-5-x-x-x-x-x-x-x-x------------------------------|
A|-5-5-5-5-5-5-5-5-7-7-7-7-7-7-7-7------------------------------|
E|--------------------------------------------------------------|

[Chorus]
Don't you feel you have to...
e|----------------------------------------------------------------5/7-5/7-5/7-7-7--7--7--|
B|----------------------------------------------------------------5/7-5/7-5/7-7-7--7--7--|
G|----------------5-5-5-5-5-5-5-5-4-4-4-4-4-4-4-4-9-9-9-9-9-9-9-9------------------------|
D|----------------x-x-x-x-x-x-x-x-x-x-x-x-x-x-x-x-x-x-x-x-x-x-x-x------------------------|
A|----------------3-3-3-3-3-3-3-3-2-2-2-2-2-2-2-2-7-7-7-7-7-7-7-7------------------------|
E|---------------------------------------------------------------------------------------|

[Outro]
e|-------------------------------------------------7~--------|
B|-------------------------------------------------7~--------|
G|-5--5--5-7--7--7-4--4--4-7--7--7-5--5--5-7--7--7-7~--------|
D|-x--x--x-x--x--x-x--x--x-x--x--x-x--x--x-x--x--x-----------|
A|-3--3--3-5--5--5-2--2--2-5--5--5-3--3--3-5--5--5-----------|
E|-----------------------------------------------------------|

And that's it. Feel free to recommend any improvements :)

************************************
| x   Dead note
| b   Bend
| /   Slide up
| \   Slide down
| ~   Vibrato
************************************
Suggest correction
Give kudos to tab author, rate the tab!
1 2 3 4 5
comments
print report bad tab
guest
You may want to rate the tab now too:
select rating
Wanna post a correction for this tab? Suggest correction