Oops, an error
Loading. Please wait.

We Share The Same Skies intro tab

version 1
version 1

Intro

Whole song

4,520 views 3 this week
3 commentsread comments
1 2 3 4 5
x 6
add to favorites
×
Save as Personal and add changes to this tab that will be seen only by you. Learn more ›
×
You can save this tab as Personal to edit and correct it or add notes. All changes will be seen only by you. Learn more »
launch autoscroll
font size
0
reset
how to read this tab
guitar tuner
edit
Autoscroll
slow
fast
+/-
esc
set tempo
stop
This is my first tab and this sounds about right to me, I decided to have  go at tabbing 
because no-one has bothered to tab the intro yet :), comments are very welcome


e-----------------------------------------------|
b-0-2-0-4-0-0-2-0-4-0-0-------------2-0-0-2-4---|
g-----------------------3-3-3-3-3-3-------------|
D-----------------------------------------------|
A-----------------------------------------------|
E-----------------------------------------------|
Suggest correction
Creating personal tab
Creating personal tab
You can edit any tab online and save it as your Personal.

You can edit, replace or remove any tab part or add personal notes – all changes will be seen only by you.

Personal tabs can be accessed anytime from any device, even offline.
Learn more »
comments
print report bad tab
3 comments total.
+1 reply
PlectrumKev 41 Oct 29, 2009 05:22 PM

|------------------|-----------------|----------------|---------------|
|-------4----------|-----4-----------|-------------2--|-(2)-----2--4--|
|---6-------4---4-|-6-------4-4-4---|---3---3---3----|-----4----------|
|-6---6---6---6---|---6---6-------5-|-4---4---4------|-------4--------|
|------------------|-----------------|----------------|---------------|
|------------------|-----------------|----------------|---------------|

+3 reply
samd23 87 Dec 02, 2010 05:42 AM

probably the worst guitar tab ever

0 reply
dolevaviv 21 Oct 26, 2014 06:42 AM, edited at 10:43 am

this is not the right tab

guest
Wanna post a correction for this tab? Suggest correction