Oops, an error
Loading. Please wait.

We Were Aborted Tab

version 1
version 1

Whole song

6,896 views 9 this week
no commentswrite comment
1 2 3 4 5
accurate
x 4
add to favorites
launch autoscroll
font size
0
reset
how to read this tab
guitar tuner
Tab Pro tools
  • play this tab
  • loop segment
  • change instrument
  • show fretboard
  • metronome
×
Best way to learn
"We Were Aborted"
Autoscroll
slow
fast
+/-
esc
set tempo
stop
Contributor
Difficulty
novice
Guitar 1 - Ryan Jarman

Intro
e|555x5x5x5x5x57-555x5x5x5x5x57-|
B|555x5x5x5x5x57-555x5x5x5x5x57-|
G|------------------------------|
D|------------------------------|
A|------------------------------|
E|------------------------------|

Verse
e|555x5x5x5x5x55-9-9-9-x9-x9-x9-x9-x9-9--777x7x7x7x7x77x-555x5x5x5x5x55x-|
B|555x5x5x5x5x55-101010x10x10x10x10x1010-777x7x7x7x7x77x-555x5x5x5x5x55x-|
G|-----------------------------------------------------------------------|
D|-----------------------------------------------------------------------|
A|-----------------------------------------------------------------------|
E|-----------------------------------------------------------------------|

e|555x5x5x5x5x55-9-9-9-x9-x9-x9-x9-x9-9--777x7x7x7x7x77x-9-10-9---9-10-9---|
B|555x5x5x5x5x55-101010x10x10x10x10x1010-777x7x7x7x7x77x--------7--------7-|
G|-------------------------------------------------------------------------|
D|-------------------------------------------------------------------------|
A|-------------------------------------------------------------------------|
E|-------------------------------------------------------------------------|

Chorus
e|--------------------5-----------------------------------------|
B|775-7-5-7-5-35-7753---7-555335--775-7-5-7-5-35-3333-32--------|
G|--------------------------------------------------------------|
D|--------------------------------------------------------------|
A|-------------------------------------------------------000000-|
E|--------------------------------------------------------------|

Verse again

Chorus x2

End Chorus
e|----------------------------|
B|----------------------------|
G|----------------------------|
D|-------------7777-----------|
A|----9999-5555---------------|
E|7777--------------77777777\-|

During Solo
e|555x5x5x5x5x55755x5x5x5x5x55755x5x5x5x5x55755x5x5x5x5x55-|
B|555x5x5x5x5x55755x5x5x5x5x55755x5x5x5x5x55755x5x5x5x5x55-|
G|---------------------------------------------------------|
D|---------------------------------------------------------|
A|---------------------------------------------------------|
E|---------------------------------------------------------|

Verse again (first half theres no singing)

Last Chorus - If this looks/sounds confusing, its the same
picking rhythm as the usual chorus only more "filled out"
e|-----------------------5--------------------------------------------|
B|775577557755-335775533--7-5553335--775577557755-3357755-3332--------|
G|-------------------------------------------------------------222222-|
D|--------------------------------------------------------------------|
A|--------------------------------------------------------------------|
E|--------------------------------------------------------------------|

End Chorus to end the son, hit a delay on the last note :)

Guitar 2 - Johnny Marr
Intro - Strumming pattern changes a bit when Ryan comes in
e|222222222------------|
B|332323232-0-33232323-|
G|444444444-0-00000000-|
D|444444444-0-00000000-|
A|222222222-0-22222222-|
E|----------0-33333333-|

Verse
e|2~-----------2---3~---3320-------|
B|3~---2--------3--3~-------2~-----|
G|4~----2--------2-2~--------------|
D|4~-----2-------------------------|
A|2~------0~-----------------------|
E|---------------------------------|

e|121212x12x12x12x12x1212-9-9-9-x9-x9-x9-x9-x9-9--777x7x7x7x7x77-|
B|121212x12x12x12x12x1212-101010x10x10x10x10x1010-777x7x7x7x7x77-|
G|---------------------------------------------------------------|
D|---------------------------------------------------------------|
A|---------------------------------------------------------------|
E|---------------------------------------------------------------|

Chorus - Just strum the powerchord throughout the chorus
e|--------------------------------------------------------------------|
B|101010101010101010101010101010-101010101010101010101010101010-------|
G|9-9-9-9-9-9-9-9-9-9-9-9-9-9-9--9-9-9-9-9-9-9-9-9-9-9-9-9-9-9-222222-|
D|7-7-7-7-7-7-7-7-7-7-7-7-7-7-7--7-7-7-7-7-7-7-7-7-7-7-7-7-7-7-222222-|
A|-------------------------------------------------------------000000-|
E|--------------------------------------------------------------------|

Intro again x1

Verse

Second Chorus x2
e|-------------------10101010109----------|
B|10-----------------101010101010---------|
G|9------------------9-9-9-9-9-9--2222222-|
D|7-------------------------------2222222-|
A|however many times--------------0000000-|
E|----------------------------------------|

End Chorus is same as Ryans

Solo
e|---------------------------------------------|
B|---------------------------------------------|
G|6b44444446b444444-4/6-6b----------2----------|
D|------------------------444444-2h4-44444-00~-|
A|---------------------------------------------|
E|---------------------------------------------|

e|-------------------2-2-3~----3320-----|
B|2-2-3~----2---------3--3~--------2~---|
G|-2---------2-----------2~-------------|
D|------------2-------------------------|
A|-------------0~-----------------------|
E|--------------------------------------|

e|2-2-2~----|
B|-3--3~----|
G|----2~----|
D|----0~----|
A|----------|
E|----------|not sure what he plays after this, possibly just mucks about with feedback

Last Chorus is same as Second Chorus

End Chorus to finish :)
comments
print report bad tab
I want to post or [tab]
guest
You may want to rate the tab now too:
select rating
Please do not post tabs as comments. Select "correction" instead!