Oops, an error
Loading. Please wait.

Wish I Knew You In The 90S tab

256 views 3 this week
no commentswrite comment
1 2 3 4 5
2 more votes to show rating
add to favorites
×
Save as Personal and add changes to this tab that will be seen only by you. Learn more ›
×
You can save this tab as Personal to edit and correct it or add notes. All changes will be seen only by you. Learn more »
launch autoscroll
font size
0
reset
how to read this tab
guitar tuner
edit
Autoscroll
slow
fast
+/-
esc
set tempo
stop
-------------------------------------------------------------------------------
                             Wish I Knew You in the 90's - The Cribs
-------------------------------------------------------------------------------
Tabbed by: the_watch_trick
E-mail: k.borowski@live.co.uk

Tuning:Standard

Intro 
e|---------------------------------------------------------------------------|
B|---------------------------------------------------------------------------|
G|--555------222-------------------------------------------------------------|
D|-----xx555----xx222-333xx000-22222-----------------------------------------| X2
A|----------------------------------333--------------------------------------|
E|---------------------------------------------------------------------------|

Verse

  "I only have old videos but it's alright cos now i know ya"
e|---------------------------------------------------------------------------|
B|---------------------------------------------------------------------------|
G|--------------------------------------7------------------------5-----------|
D|----7---------------------------------7------------------------5-----------|  X4
A|----7---------------------------------x------------------------x-----------|
E|----5---------------------------------5------------------------3-----------|

Pre-Chorus 

  Oh Yeah, Oh Yeah, Oh Yeah No I just don't care 
e|---------------------------------------------------------------------------|
B|---------------------------------------------------------------------------|
G|-----7----7-----------10---------------------------------------------------| X2
D|-----7----7---7---7---10-------------10----7-------------------------------|
A|-----5----5---7---7----8-------------10----7-------------------------------|
E|--------------5---5-------------------8----5-------------------------------|

Chorus - Same as intro, played 4 times
Verse Again 
Pre Chrous again, but played 4 times instead of twice 
Chorus, Played 5 times instead of 4 

Outro 

e|---------------------------------------5------------------------------------|
B|----------------------------------------------------------------------------|
G|--555------222-------333xx222-555xx-----------------------------------------|
D|-----xx555----xx222----------------5550-------------------------------------|
A|----------------------------------------------------------------------------|
E|----------------------------------------------------------------------------|

And that's it, pretty straight forward but a great b-side nonetheless. I do appreciate any improvements and 
criticisms etc.


************************************

| /   slide up
| \   slide down
| h   hammer-on
| p   pull-off
| ~   vibrato
| +   harmonic
| x   Mute note
| b   Bend
| pb  Pre-bend
| br  Bend release
| pbr Pre-bend release
| brb Bend release bend

************************************

            
            
Suggest correction
Creating personal tab
Creating personal tab
You can edit any tab online and save it as your Personal.

You can edit, replace or remove any tab part or add personal notes – all changes will be seen only by you.

Personal tabs can be accessed anytime from any device, even offline.
Learn more »
Give kudos to tab author, rate the tab!
1 2 3 4 5
comments
print report bad tab
guest
You may want to rate the tab now too:
select rating
Wanna post a correction for this tab? Suggest correction