Oops, an error
Loading. Please wait.

Womens Needs bass

version 1
version 1

Whole song

1,127 views 1 this week
4 commentsread comments
1 2 3 4 5
x 5
add to favorites
×
Save as Personal and add changes to this tab that will be seen only by you. Learn more ›
×
You can save this tab as Personal to edit and correct it or add notes. All changes will be seen only by you. Learn more »
launch autoscroll
font size
0
reset
guitar tuner
edit
Autoscroll
slow
fast
+/-
esc
set tempo
stop
Author
Intro/Verse/Breakdown

Verse is just this over and over

G|-----------------------------------------------------------------|
D|-----------------------------------------------------------------|
A|-----------------------------------------------------------------|
E|-3-3-3-33/11-11-11-1111\3-3-3-33/11-11-11-1111-------------------|

The it just goes

G|-----------------------------------------------------------------|
D|-----------------------------------------------------------------|
A|-----------------------------------------------------------------|
E|-8-8-8-8-8-8-8-8-8-8-8-8-8-8-8-8-8-8-8-8-8 for however long------|

Chorus

"and evening comes and i feel much better..."

G|-----------------------------------------------------------------|
D|-----------------------------------------------------------------|
A|-3-3-3-33-3-333-3-3----------------------------------------------|
E|---------------------3-3-3-33-3-3333-----------------------------|

"ooo oo oo ooo oo oo o ooo "


G|-----------------------------------------------------------------|
D|-----------------------------------------------------------------|
A|-3333333333333333------------------------------------------------|
E|------------------3333333333333333-------------------------------|

thats pretty much it timing is not hard,.

            
            
Suggest correction
Creating personal tab
Creating personal tab
You can edit any tab online and save it as your Personal.

You can edit, replace or remove any tab part or add personal notes – all changes will be seen only by you.

Personal tabs can be accessed anytime from any device, even offline.
Learn more »
comments
print report bad tab
4 comments total. Showing first comments.
-2 reply
BrookyMCR 31 Jan 23, 2008 07:45 AM

intros wrong, it goes to the D not the D# :)

-2 reply
BrookyMCR 31 Jan 23, 2008 12:11 PM

so id basically play it like
this

G|-----------------------------------------|
D|-----------------------------------------|
A|------------------
-7---------------------|
E|-3-3-3-33/11-11-11---3-3-3-33/11-11-11-0-|

-2 reply
BrookyMCR 31 Jan 23, 2008 12:11 PM

G|-----------------------------------------|
D|-----------------------------------------|
A|-------------------7------
---------------|
E|-3-3-3-33/11-11-11---3-3-3-33/11-11-11-0-|

guest
You may want to rate the tab now too:
select rating
Wanna post a correction for this tab? Suggest correction