Oops, an error
Loading. Please wait.

You Were Always The One Tab

10,552 views 6 this week
3 commentsread comments
1 2 3 4 5
x 3
add to favorites
launch autoscroll
font size
0
reset
how to read this tab
guitar tuner
×
Best way to learn
"You Were Always The One"
Autoscroll
slow
fast
+/-
esc
set tempo
stop
Tuning
E A D G B E
credit goes to Smithdom from cribs forum...but for you lasy buggers who cant be bothered 
look on there, this is more or less all of it.....

intro

e-------------------0--0--0--------------|
b-------------------12-9--7--------------|
g---13--16--14--16-----------------------|
d---x---x---x---x------------------------|
a---11--14--12--14-----------------------|
e----------------------------------------|

verse

e------12--11--9--7-------------------------------------------|
b--9---9---9---9--9------------ etc on second verse add in 12-| on b on the octave thing
g--9----------------------13----------------------------------|
d-------------------------x-----------------------------------|
a-------------------------11----------------------------------|
e-------------------------------------------------------------|

chorus

e--5--7--x--x--------------------------------------x----x----------|
b--5--7--9--9--------------------------------------9----x----------|
g--6--8--8--9--------------------------------------9----8----------|
d--7--9--9--11--------ends with something like-----11--(9)---------|
a--7--x--x--11-------------------------------------11---6----------|
e--5--7--x--x--------------------------------------x----x----------|
                                                        ^this is some kind of voicing of B, not sure exactly


a brilliant song from a brilliant album. ( Love the Cribs- Hate the Kaiser chiefs)
Suggest correction
Give kudos to tab author, rate the tab!
1 2 3 4 5
comments
print report bad tab
3 comments total.
0 reply
*HannahLove* 62 Jun 05, 2006 10:45 AM

Damn straight.... Love the Cribs, hate the Kaiser Chiefs

+1 reply
tothelighthouse 74 Mar 10, 2007 01:32 AM

same here

+1 reply
BrookyMCR 31 Nov 03, 2007 03:52 PM

hehe same :D

guest
You may want to rate the tab now too:
select rating
Wanna post a correction for this tab? Suggest correction