Oops, an error
Loading. Please wait.

In The Eyes Of God Tab

version 1
version 1

Whole song

Interactive

6,227 views 3 this week
8 commentsread comments
1 2 3 4 5
x 4
add to favorites
launch autoscroll
font size
0
reset
how to read this tab
guitar tuner
Autoscroll
slow
fast
+/-
esc
set tempo
stop
Help us to improve Ultimate-Guitar.com Take our survey!
×
Author
Difficulty
Tuning
advanced
B F# B E G# C#
ok so heres my attempt since no one else will attempt it.

Artist:The Crimson Armada
Song:In The Eyes Of God
Album Guardians

Tuning Drop B

Intro
C#|-------------------------------------------------------------------|
G#|-------------------------------------------------------------------|
E |-------------------------------------------------------------------|
B |-------------------------------------------------------------------|
F#|0-1-5-01-555555555555-0-1-5-01-555544444444------------------------|
B |0-1---01--------------0-1---01-------------------------------------|
   . .   ..              . .   ..
Trem Picked
C#|-------------------------------------------------------------------|
G#|-------------------------------------------------------------------|
E |-------------------------------------------------------------------|
B |-------------------------------------------------------------------|
F#|-5-4-5-7-8-7-5-4-5-7-8-10-8-5-4-5-7-8-7-5-4-5-000-000--------------|
B |----------------------------------------------000-000-5*~----------|

Trem picked again
C#|-------------------------------------------------------------------|
G#|-------------------------------------------------------------------|
E |-------------------------------------------------------------------|
B |-------------------------------------------------------------------|
F#|-8-7-8-10-12-10-8-7-8-10-12-15-------------------------------------|
B |-------------------------------------------------------------------| x 2

open B strum, figure out pattern its pretty basic

heres the guitars over the breakdown
C#|-------------------------------------------------------------------|
G#|-------------------------------------------------------------------|
E |-------------------------------------------------------------------|
B |-------------------------------------------------------------------|
F#|-------------------------------------------------------------------|
B |-8p5h8p5h7p5-8p5h8p5h7p5-8p5h8p5h7p5-8p5h8p5h7p5-8p5h7p5h8p5h7p5---| x2
 you don't need to strum those just tap with your left hand and you'll do fine once you 
the pattern down
(second time through move it all down one fret. i.e: 7p4h7p4h6p4...)

then do that again on the F# string.

fast part
C#|----------------------------------------------------------------------|
G#|----------------------------------------------------------------------|
E |----------------------------------------------------------------------|
B |----------------------------------------------------------------------|
F#|----4h7p4---4h7p4-7h8-5h7-4h5-5h7p5---4h7p4---4h7p4-7h8-5h7-7h8-5h8p5-|
B |-555-----555-----------------------555-----555------------------------|
    ...     ...                       ...     ...
C#|----------------------------------------------------------------------|
G#|----------------------------------------------------------------------|
E |----------------------------------------------------------------------|
B |----------------------------------------------------------------------|
F#|----4h7p4---4h7p4-7h8-5h7-4h5-5h7p5---4h7p4---4h7p4-8888777744445555--|
B |-555-----555-----------------------555-----555------------------------|  x2
    ...     ...                       ...     ...
cool part ;)
C#|---------------------------------------------------------------------|
G#|---------------------------------------------------------------------|
E |---------------------------------------------------------------------|
B |---------------------------------------------------------------------|
F#|-000-000-55558888-000-000-7777101010-000-000-888812121212-1515151515-|
B |-000-000----------000-000------------000-000-------------------------|
    ... ...          ... ...            ... ...

C#|----------------------------------------------------------------------|
G#|----------------------------------------------------------------------|
E |----------------------------------------------------------------------|
B |----------------------------------------------------------------------|
F#|-1515151313131313131313-000-000-55558888-000-000-777710101010-000-000-|
B |------------------------000-000----------000-000--------------000-000-|
                           ... ...          ... ...              ... ...

C#|-------------------------------------------------------------------|
G#|-------------------------------------------------------------------|
E |-------------------------------------------------------------------|
B |-------------------------------------------------------------------|
F#|-888812121212-101010101010101077777777-----------------------------|
B |-------------------------------------------------------------------| x 2


Bridge
C#|------------------------------------------------------------------|
G#|------------------------------------------------------------------|
E |------------------------------------------------------------------|
B |8---------10----------------12--------------10----------------8---|
F#|8--8h10p8-10----10h12p10----12----12h14p12--10----10h12p10----8---|
B |888------8101010--------1010121212--------12101010--------1010888-|
    ..      . . . .         . .   . .         .   . .         ..  ..

C#|-----------------------------------------------------------------|
G#|-----------------------------------------------------------------|
E |-----------------------------------------------------------------|
B |--------7----------12--------------10----------------8-----------|
F#|-8h10p8-7--7h9p7---12----12h14p12--10----10h12p10----8---8h10p8--|
B |-------8777------77121212--------12101010--------1010888---------| x4
          . ..      ..   . .         .   ..          ..  ..
after that..
C#|-------------------------------------------------------------------|
G#|-------------------------------------------------------------------|
E |-------------------------------------------------------------------|
B |-------------------------------------------------------------------|
F#|-------------------------------------------------------------------|
B |-8p5h8p5h7p5-8p5h8p5h7p5-8p5h8p5h7p5-8p5h8p5h7p5-8p5h7p5h8p5h7p5---|

C#|-------------------------------------------------------------------|
G#|-------------------------------------------------------------------|
E |-------------------------------------------------------------------|
B |-------------------------------------------------------------------|
F#|-------------------------------------------------------------------|
B |-7p4h7p4h6p4-7p4h7p4h6p4-7p4h7p4h6p4-7p4h7p4h6p4-7p4h6p4h7p4h6p4---| x5

C#|-------------------------------------------------------------------|
G#|-------------------------------------------------------------------|
E |-------------------------------------------------------------------|
B |-------------------------------------------------------------------|
F#|------------------------------------000-000-000--------------------|
B |-8p5h8p5h7p5-8p5h8p5h7p5-8p5h8p5--0-000-000-000--------------------| x4
                                     . ... ... ...

do that once then the hammer ons and pulloffs a half step lower the second time then the 
and 4th same thing just F# string.

Breakdown..... open strumm yada yada...(palm muted of course)

Breakdown w/ pinches
C#|-------------------------------------------------------------------|
G#|-------------------------------------------------------------------|
E |-------------------------------------------------------------------|
B |-------------------------------------------------------------------|
F#|-00-4*~-00-------0-4*~-00------------------------------------------|
B |-00-----00-3*~---0-----00-3*~~~------------------------------------| x4

Trem picked
C#|-------------------------------------------------------------------|
G#|-------------------------------------------------------------------|
E |-------------------------------------------------------------------|
B |-------------------------------------------------------------------|
F#|-8-7-5-4-5-7-8-7-5-7-5-4-8-7---------------------------------------|
B |-------------------------------------------------------------------| x 2

Trem picked                                      end on: (after fourth time)
C#|----------------------------------------------|---------------------|
G#|----------------------------------------------|---------------------|
E |----------------------------------------------|---------------------|
B |----------------------------------------------|000-000--------------|
F#|-12-10-8-7-8-10-12-10-8-10-8-7-12-10----------|000-000--------------|
B |------------------------------------------x4--|000-000--------------|
                                                  ... ...


Enjoy guys ;) please rate and comment its not perfect so corrections PLZ! the way i see 
this is a good base for someone more practiced at tabbing than i haha better like it it 
me 5 and a half hours to tab!
Suggest correction
comments
print report bad tab
8 comments total. Showing first comments.
0 reply
brutalx 124 Apr 03, 2010 10:37 PM

They play in drop C, but definitly a nice attempt, Il have to grab my other guitar and try this in B before i rate tho

0 reply
RWTFskater14 65 Apr 04, 2010 10:56 PM

i wasnt sure. it just sounded real low and its hard to tell when its that low. but thanks for the feedback

0 reply
RWTFskater14 65 Apr 04, 2010 10:57 PM

o and on the "cool part ;)" it only goes to 13 instead of 15

guest
You may want to rate the tab now too:
select rating
Wanna post a correction for this tab? Suggest correction