Oops, an error
Loading. Please wait.

Godless Girl Chords

1,298 views 1 this week
2 commentsread comments
1 2 3 4 5
please rate
add to favorites
launch autoscroll
font size
0
reset
transpose
0
reset
display chords
guitar tuner
Autoscroll
slow
fast
+/-
esc
set tempo
stop
Help us to improve Ultimate-Guitar.com Take our survey!
×
Author
Difficulty
intermediate
The Crookes - Godless Girl


D, Bm
INTRO

	D

E-|---------------------------| (2x)
B-|---------------------------|
G-|-----7777--7-6-7-6---------|
D-|--------------------9-7----|
A-|---------------------------|
E-|---------------------------|

	Bm

E-|---------------------------| (2x)
B-|-----7-7-7---7/8/7---------|
G-|---------------------7~----|
D-|---------------------------|
A-|---------------------------|
E-|---------------------------|



D       D
A life, A wreck.
                Bm
Charming is her dress...
...and the nape of her neck

D       D		
My ink's awry, 
                Bm
in the blink of an eye
It leaves, by the by.

D              D                  Bm
Take off old threads by her tomb of a bed.
Am I right in the head?
D              D                  Bm
And we'll pretend like we're angry young men...
...lest we should forget.

Em      G
Yea... 	Yea...

D                      D                  Bm
Angst marrs your eyes (such unclear warning signs).
Am I evil? Am I kind?
D                      D                     Bm
My heart's cold drone will outlive these faded bones...
...but I won't always be alone, I won't always feel this...

Em		G

A                G             D
How she now sits oddly with the times. 
	
D                        Em          Bm
I was lost, was lost, was lost and so ashamed.
Suggest correction
Give kudos to tab author, rate the tab!
1 2 3 4 5
comments
print report bad tab
2 comments total.
0 reply
AlenBaraba 54 wrote on May 22 2012, 05:25 am

made by Alenko (support on teawizz1@gmail.com)

0 reply
majovo 36 wrote on February 28 2015, 10:33 am

Hey i think it's easier if the riffs are played as
e-----------------
B-----------------
G 77777-6-7-6-4-2-
D-----------------
A-----------------
E-----------------

e-----------------
B---7-7-7-8-7-3---
G-----------------
D-----------------
A-----------------
E-----------------

this is just my personal preference and it sounds the same but it feels easier to me.

guest
You may want to rate the tab now too:
select rating
Please do not post tabs as comments. Select "correction" instead!