Oops, an error
Loading. Please wait.

Back From The Grave Tab

version 1
version 1

Whole song

Interactive

1,151 views 3 this week
no commentswrite comment
1 2 3 4 5
please rate
add to favorites
launch autoscroll
font size
0
reset
how to read this tab
guitar tuner
Tab Pro tools
  • play this tab
  • loop segment
  • change instrument
  • show fretboard
  • metronome
×
Best way to learn
"Back From The Grave"
Autoscroll
slow
fast
+/-
esc
set tempo
stop
                      The Crown - Back From The Grave
                     From the Album - Deathrace King
                     Copyright - 2000 Metalblade 
                     Version 1.0 - (January 2002)

Transcribed by: BMG. 

For Questions, Comments, Newest Version, or Corrections contact
BMG: at BMG@c.dk
Check Out empire 666, With More Transcriptions On It: 
http://www.sitecenter.dk/death

..  - palm mute          /  - slide up to
 \  - slide down to      ~  - vibrato
 h  - hammer on          b  - bend
 p  - pull off            Suffixes for bend
                          ph - pinch harmonic
                           f - full bend    h - half bend
*  - see comment           r - release      t - tap bend
X  - percussion mute       ~ - vibrato bend
@  - slight palm mute     () - ghost note, sustained note

Tune Gtr to E

Back From The Grave

Intro (Fade in)
|--------------------------------------------------------------------|
|--------------------------------------------------------------------|
|--------------------------------------------------------------------|
|--------------------------------------------------------------------|
|--------------------------------------------------------------------|
|-0-0-0-0-0-0-0-0-0-0-0-0-0-0-0-0-0-0-0-0-0-0-0-0-0-0-0-0-0-0-0-0-0--|
  . . . . . . . . . . . . . . . . . . . . . . . . . . . . . . . . . 

Riff A
|--------------------------------------------------------------------|
|--------------------------------------------------------------------|
|---------------------------------------------2---4------------------|
|-----4---2---------------------------5---4-----------5---4---5------|
|-------------5---4---2---4---5--------------------------------------|
|-2-2---2---2---2---2---2---2---2-3-3---3---3---3---3---3---3---3----|
  . .   .   .   .   .   .   .   . . .   .   .   .   .   .   .   . 

|--------------------------------------------------------------------|
|--------------------------------------------------------------------|
|--------------------------------------------------------------------|
|-----4---2-------------------------------------------7---5---4------|
|-------------5---4---2---4---5-------7---5---4---0-0---0---0---0----|
|-2-2---2---2---2---2---2---2---2-0-0---0---0---0--------------------|
  . .   .   .   .   .   .   .   . . .   .   .   . . .   .   .   .

Fill 1
|-----------|
|-----------|
|-----------|
|-----------|
|-2-2-2-2-2-|
|-0-0-0-0-0-|
  . . . . .

Riff B-1
|--------------------------------------------------------------------|
|--------------------------------------------------------------------|
|--------------------------------------------------------------------|
|-----4---4-----4---4-5-5-5-5-----4---4-----5-5-5-5-2-2-2-2----------|
|--------------------------------------------------------------------|
|-2-2---2---2-2---2-----------2-2---2---2-2--------------------------|
  . .   .   . .   .   . . . . . .   .   . . . . . . . . . .

|--------------------------------------------------------------------|
|--------------------------------------------------------------------|
|--------------------------------------------------------------------|
|-----4---4-----4---4-5-5-5-5-----4---4------------------------------|
|------------------------------------------(5-2-2-4-2-2-2)2----------|
|-2-2---2---2-2---2-----------2-2---2---2-2-3-0-0-2-0-0-0-0----------|
  . .   .   . .   .   . . . . . .   .   . . . . . . . . .  

Fill 2
|-----------------------------|
|-----------------------------|
|-----------------------------|
|-----4---4-----4---4-5-5-5-5-|
|-----------------------------|
|-2-2---2---2-2---2-----------|
  . .   .   . .   .   . . . . 

Riff B-2
|--------------------------------------------------------------------|
|--------------------------------------------------------------------|
|--------------------------------------------------------------------|
|-----4---4-----4---4-5-5-5-5-----4---4-----5-5-5-5-2-2-2-2----------|
|--------------------------------------------------------------------|
|-2-2---2---2-2---2-----------2-2---2---2-2--------------------------|
  . .   .   . .   .   . . . . . .   .   . . . . . . . . . .

|--------------------------------------------------------------------|
|--------------------------------------------------------------------|
|--------------------------------------------------------------------|
|-----4---4-----4---4-5-5-5-5----------------------------------------|
|-----------------------------4-----(4)-----7------5------2----------|
|-2-2---2---2-2---2-----------2-----(2)-----5------3------0----------|
  . .   .   . .   .   . . . .   

Riff B-3
|--------------------------------------------------------------------|
|-----7---7-----7---7-8-8-8-8-----7---7-----8-8-8-8-5-5-5-5----------|
|--------------------------------------------------------------------|GTR
|-----4---4-----4---4-5-5-5-5-----4---4-----5-5-5-5-2-2-2-2----------|1
|--------------------------------------------------------------------|
|-2-2---2---2-2---2-----------2-2---2---2-2--------------------------|
  . .   .   . .   .   . . . . . .   .   . . . . . . . . . .

|--------------------------------------------------------------------|
|-----7---7-----7---7-8-8-8-8-----7---7------------------------------|
|--------------------------------------------------------------------|
|-----4---4-----4---4-5-5-5-5-----4---4------------------------------|
|---------------------------------------------------------2----------|
|-2-2---2---2-2---2-----------2-2---2---2-2-3-0-0-2-0-0-0-0----------|
  . .   .   . .   .   . . . . . .   .   . . . . . . . . .  

Riff C
|--------------------------------------------------------------------|
|--------------------------------------------------------------------|
|--------------------------------------------------------------------|
|--------------------------------------------------------------------|
|-4-4----5-5----2-------------7-7-7-5--------------------------------|
|-2-2----3-3----0-0-0-0-0-0-0-5-5-5-3--------------------------------|
                  . . . . . .

Riff D
|--------------------------------------------------------------------|
|--------------------------------------------------------------------|
|--------------------------------------------------------------------|GTR
|-7-0-0-8-0-0-5-0-7-0-8-0-10-0-8h10-7-0-0-8-0-0-5-0-7-0-8-0-7-0-5-0--|1
|--------------------------------------------------------------------|
|--------------------------------------------------------------------|
| . . . . . . . . . . . . .  .      . . . . . . . . . . . . . . . .							  
|--------------------------------------------------------------------|
|--------------------------------------------------------------------|
|-5--------------------------------(5)-------------------------------|GTR
|-3--------------------------------(3)-------------------------------|2
|-3--------------------------------(3)-------------------------------|
|--------------------------------------------------------------------|

|--------------------------------------------------------------------|
|--------------------------------------------------------------------|
|--------------------------------------------------------------------|GTR
|-7-0-0-8-0-0-5-0-7-0-8-0-10-0-8h10-7-0-0-8-0-0-5-0-7-0-8-0-7-0-5-0--|1
|--------------------------------------------------------------------|
|--------------------------------------------------------------------|
| . . . . . . . . . . . . .  .      . . . . . . . . . . . . . . . .	  
|--------------------------------------------------------------------|
|--------------------------------------------------------------------|
|-5--------------------------------(5)-------------------------------|GTR
|-3--------------------------------(3)-------------------------------|2
|-3--------------------------------(3)-------------------------------|
|--------------------------------------------------------------------|

|--------------------------------------------------------------------|
|--------------------------------------------------------------------|
|--------------------------------------------------------------------|GTR
|-7-0-0-8-0-0-5-0-7-0-8-0-10-0-8h10-7-0-0-8-0-0-5-0-7-0-8-0-7-0-5-0--|1
|--------------------------------------------------------------------|
|--------------------------------------------------------------------|
|							  
|--------------------------------------------------------------------|
|--------------------------------------------------------------------|
|--------------------------------------------------------------------|GTR
|-8---------------------------------5---------------------------3----|2
|-8---------------------------------5---------------------------3----|
|-6---------------------------------3---------------------------1----|


Riff E
|--------------------------------------------------------------------|
|-----------------------------------------------------13-------------|
|--------------------------------------------------------------------|
|-7------(7)------0-8-10-7------(7)------0-8-10-0-7-8----------------|
|-5------(5)-------------5------(5)----------------------------------|
|-5------(5)-------------5------(5)----------------------------------|
                  . . .                  . . .  . . . 


Intro
Riff A		2x
Fill 1
Riff B-1	3x
Riff C		4x
Riff D		2x
Fill 2
Riff B-1	1x
Riff C		4x
Riff D		2x
Riff E		4x
Riff B-2	1x
Riff B-1	1x
Riff B-3	1x
Riff A		2x
comments
We did not receive enough feedback on this tab! Please rate:
print report bad tab
1 2 3 4 5
I want to post or [tab]
guest
You may want to rate the tab now too:
select rating
Please do not post tabs as comments. Select "correction" instead!