Oops, an error
Loading. Please wait.

Black Lightning Tab

255 views 1 this week
no commentswrite comment
1 2 3 4 5
please rate
add to favorites
launch autoscroll
font size
0
reset
how to read this tab
guitar tuner
Tab Pro tools
  • play this tab
  • loop segment
  • change instrument
  • show fretboard
  • metronome
×
Best way to learn
"Black Lightning"
Autoscroll
slow
fast
+/-
esc
set tempo
stop
                      The Crown - Black Lightning
                     From the Album -Hell is Here
                     Copyright - 1998 Metalblade 
                     Version 1.0 - (September 2001)

Transcribed by: Mike B.

For Questions, Comments, Newest Version, or Corrections contact
Steve S.: at Setherial99@AOL.com

..  - palm mute          /  - slide up to
 \  - slide down to      ~  - vibrato
 h  - hammer on          b  - bend
 p  - pull off            Suffixes for bend
                          ph - pinch harmonic
                           f - full bend    h - half bend
*  - see comment           r - release      t - tap bend
X  - percussion mute       ~ - vibrato bend
@  - slight palm mute     () - ghost note, sustained note

Tune Gtr to E

Black Lightning

Riff A
|--------------------------------------------------------------------|
|--------------------------------------------------------------------|
|---10\9---------------10\9------10/12------10\9---------------------|Gtr 
|---10\9---------------10\9------10/12------10\9---------------------|1&2
|----8\7----------------8\7-------8/10-------8\7---------------------|
|---------000-000-000--------000--------000-------000-000-000--------|
|                                                                    |
|--------------------------------------------------------------------|
|--------------------------------------------------------------------|
|--------------------------------------------------------------------| 
|--------------------------------------------------------------------| 
|--------------------------------------------------------------------|
|000-000-000-000-----------------------------------------------------|

Riff B
|--------------------------------------------------------------------|
|--------------------------------------------------------------------|
|---10\9------10\9------10\9-9--9/10/11\10-9-------------------------|Gtr
|---10\9------10\9------10\9-9--9/10/11\10-9-------------------------|1&2
|----8\7-------8\7-------8\7-7--7/8-/10\8--7-------------------------|
|---------000-------000----------------------------------------------|

Riff C
|---------------|-----------------|------------------|---------------|
|---------------|-----------------|--11--10----8--10-|--11-10------10|
|--10--9---7--9-|--10--9----9--12-|------------------|----------10---|Gtr
|---------------|-----------------|------------------|---------------| 1
|---------------|-----------------|------------------|---------------|
|---------------|-----------------|------------------|---------------|
C2
|---------------|-----------------|----------------|-----------------|
|---------------|-----------------|----------------|-----------------|
|-10--9---------|-10--7-----------|--7-------------|---------777-777-|Gtr
|-10--9---------|-10--7-----------|--7--7----------|-333-333-777-777-| 2
|--8--7---------|--8--5-----------|--5--7----------|-333-333-555-555-|
|-----0---------|-----------------|-----5----------|-111-111---------|

Riff D
|--------------------------------------------------------------------|
|--------------------------------------------------------------------|
|---10\9------10\9------10\9-9--9/10/11\10-9-------------------------|Gtr
|---10\9------10\9------10\9-9--9/10/11\10-9-------------------------|1&2
|----8\7-------8\7-------8\7-7--7/8-/10\8--7-------------------------|
|---------000-------000-----------------------000--------------------|

|--------------------------------------------------------------------|
|--------------------------------------------------------------------|
|---10\9------10\9-------5-5-------7-7-------------------------------|
|---10\9------10\9-------5-5-------7-7-------------------------------|
|----8\7-------8\7-------3-3-------5-5-------------------------------|
|---------000-------000-------000------------------------------------|

E (Clean) Played through F
|----------------8-|----------|----10--------------------------------|
|------10---12-----|----------|---------12---10----------------------|
|----9----9----9---|----x3----|-------9----9----9--------------------|
|------------------|----------|--------------------------------------|Gtr
|------------------|----------|--------------------------------------| 1
|------------------|----------|--------------------------------------|

|-------------------8-|----------|----10-----------------------------|
|-------10----12------|----------|----------12----10-----------------|
|----10----10----10---|----x3----|-------10----10----10--------------|Gtr
|---------------------|----------|-----------------------------------| 1
|---------------------|----------|-----------------------------------|
|---------------------|----------|-----------------------------------|

Riff F
|--------------------------------------------------------------------|
|--------------------------------------------------------------------|
|-------------------------------------7-7-777--7-7-777---------------|Gtr
|-7-7-777--7-7-777--7-7-777--7-7-777--7-7-777--7-7-777--3-333--5-555-|2
|-7-7-777--7-7-777--7-7-777--7-7-777--5-5-555--5-5-555--3-333--5-555-|
|-5-5-555--5-5-555--5-5-555--5-5-555--------------------1-111--3-333-|

Riff G
|----------------|-----------------|11--10----8--10-|11--10----------|
|11--10----8--10-|11--10----11--13-|----------------|----------13--10|
|----------------|-----------------|----------------|----------------|Gtr
|----------------|-----------------|----------------|----------------| 1
|----------------|-----------------|----------------|----------------|
|----------------|-----------------|----------------|----------------|
 G2
|----------------|-----------------|---------------|-----------------|
|----------------|-----------------|---------------|-----------------|
|-10--9----------|-10--12----------|--12--7--------|-----------------|Gtr
|-10--9----------|-10--12----------|--12--7--------|-888-888-555-555-| 2
|--8--7----------|--8--10----------|--10--5--------|-888-888-555-555-|
|-----0----------|-----------------|---------------|-666-666-333-333-|

No solo yet...will work on that...maybe
comments
We did not receive enough feedback on this tab! Please rate:
print report bad tab
1 2 3 4 5
I want to post or [tab]
guest
You may want to rate the tab now too:
select rating
Please do not post tabs as comments. Select "correction" instead!