Oops, an error
Loading. Please wait.

Dead Mans Song Tab

832 views 1 this week
no commentswrite comment
1 2 3 4 5
please rate
add to favorites
launch autoscroll
font size
0
reset
how to read this tab
guitar tuner
Tab Pro tools
  • play this tab
  • loop segment
  • change instrument
  • show fretboard
  • metronome
Autoscroll
slow
fast
+/-
esc
set tempo
stop
Artist : The Crown
Title : Dead Man's Song
Album : Deathrace king
Tabber : OldmanHappa



Key :
  
  ~ = Let Ring
  h = Hammer On
  p = Pull Off
  x = Palm Mute
  / = Slide Up
  \ = Slide Down




Intro / Chorus Riff :

 Both Guitars
|------------------------------------|
|------------------------------------|
|------------------------------------| x 4
|------------------------------------|
|---5-xxx-6-x-5---3-5-6-6-8-xx-8-6---|
|---3-xxx-4-x-3---1-3-4-4-6-xx-6-4---|



Break :

 Gtr 1
|-------10-----------10-------10-----------10---|
|---8-9------8-x-9-x------8-9------8-x-9-x------|
|-----------------------------------------------|
|-----------------------------------------------|
|-----------------------------------------------|
|-----------------------------------------------|


 Gtr 2
|-----------------------------------------------|
|-----------------------------------------------|
|-----------------------------------------------|
|-----------------------------------------------|
|---5(~)-----5(~)---------5(~)-----5(~)---------|
|---3(~)-----3(~)---------3(~)-----3(~)---------|



Verse Riff :

 Gtr 1
|---15-20-20-20-15-15-18-18-18--------------------------|
|------------------------------20p18-18-20---14-14-13---|
|-------------------------------------------------------| x 1 
|-------------------------------------------------------|
|-------------------------------------------------------|
|-------------------------------------------------------|
 

 Gtr 2
|-----------------------------------------------------|
|-----------------------------------------------------|
|-----------------------------------------------------| x 8
|-----------------------------------------------------|
|---5-x-5-x-5-/-6-6-6-6-3---5-x-5-x-5-/-6-3-3-3-3-6---|
|---3-x-3-x-3-/-4-4-4-4-1---3-x-3-x-3-/-4-1-1-1-1-4---|



1st Chorus :
 
 Rythm Gtr
|------------------------------------|
|------------------------------------|
|------------------------------------| x 4
|------------------------------------|
|---5-xxx-6-x-5---3-5-6-6-8-xx-8-6---|
|---3-xxx-4-x-3---1-3-4-4-6-xx-6-4---|


 Lead Gtr
|-------10(~)---8-10-11-11-13---13-11---|
|---8-9---------------------------------|
|---------------------------------------| x 3
|---------------------------------------|
|---------------------------------------|
|---------------------------------------|

 Variation - Last repeat :

|-------10(~)---8-10-11-11-/-13-\-10h11p10---|
|---8-9--------------------------------------|
|--------------------------------------------| (x 1)
|--------------------------------------------|
|--------------------------------------------|
|--------------------------------------------|



Break :
 
 Gtr 1
|---15-20-20-20-15-15-18-18-18--------------------------|
|------------------------------20p18-18-20---14-14-13---|
|-------------------------------------------------------|
|-------------------------------------------------------|
|-------------------------------------------------------|
|-------------------------------------------------------|


 Gtr 2
|----------|
|----------|
|----------| (Listen to the song and you'll 
|----------| hear where to strum the chords)
|---5(~)---|
|---3(~)---|



Verse :

 Both Guitars
|-----------------------------------------------------|
|-----------------------------------------------------|
|-----------------------------------------------------| x 4
|-----------------------------------------------------|
|---5-x-5-x-5-/-6-6-6-6-3---5-x-5-x-5-/-6-3-3-3-3-6---|
|---3-x-3-x-3-/-4-4-4-4-1---3-x-3-x-3-/-4-1-1-1-1-4---|



Pre-Chorus :

 Both Guitars
|--------------------------------|
|--------------------------------|
|--------------------------------| x 8 (There may be some difference 
|---10-10------------------------|      in the strumming patterns, 
|---8--8--10-10-/-11-11-11-\-8---|      but it's not that imortant..)
|---------8--8--/-9--9--9--\-6---|



2nd Chorus :
 
 Rythm Gtr
|------------------------------------|
|------------------------------------|
|------------------------------------| x 4
|------------------------------------|
|---5-xxx-6-x-5---3-5-6-6-8-xx-8-6---|
|---3-xxx-4-x-3---1-3-4-4-6-xx-6-4---|


 Lead Gtr
|-------10(~)---8-10-11-11-13---13-11---|
|---8-9---------------------------------|
|---------------------------------------| x 3
|---------------------------------------|
|---------------------------------------|
|---------------------------------------|

 Variation - Last repeat :

|-------10(~)---8-10-11-11-/-13-\-10h11p10---|
|---8-9--------------------------------------|
|--------------------------------------------| (x 1)
|--------------------------------------------|
|--------------------------------------------|
|--------------------------------------------|



Break :

 Gtr 1
|-------10-----------10-------10-----------10---|
|---8-9------8-x-9-x------8-9------8-x-9-x------|
|-----------------------------------------------|
|-----------------------------------------------|
|-----------------------------------------------|
|-----------------------------------------------|


 Gtr 2
|-----------------------------------------------|
|-----------------------------------------------|
|-----------------------------------------------|
|-----------------------------------------------|
|---5(~)-----5(~)---------5(~)-----5(~)---------|
|---3(~)-----3(~)---------3(~)-----3(~)---------|



Break 2 :

|-------------------|
|-------------------|
|---------------5---| (x 1)
|-----2---2-3-5-----|
|---0---0-----------|
|-------------------|



Rythm For The Solo :

 (Play during the whole solo - 
  Tremolo or strumming )
|----------------------------------------------|
|----------------------------------------------|
|----------------------------------------------|
|---22222222--33333333--55555555--5h6p5--3h6---|
|---00000000--11111111--33333333---------------|  
|----------------------------------------------|

End On :

|----------|
|----------|
|----------|
|---2(~)---|
|---0(~)---|
|----------|



Go To The 3rd and Last Chorus :
(Slow down in the end)
 
 Rythm Gtr
|------------------------------------|
|------------------------------------|
|------------------------------------| x 4
|------------------------------------|
|---5-xxx-6-x-5---3-5-6-6-8-xx-8-6---|
|---3-xxx-4-x-3---1-3-4-4-6-xx-6-4---|


 Lead Gtr
|-------10(~)---8-10-11-11-13---13-11---|
|---8-9---------------------------------|
|---------------------------------------| x 3
|---------------------------------------|
|---------------------------------------|
|---------------------------------------|

 Variation - Last repeat :

|-------10(~)---8-10-11-11-/-13-\-10h11p10---|
|---8-9--------------------------------------|
|--------------------------------------------| (x 1)
|--------------------------------------------|
|--------------------------------------------|
|--------------------------------------------|


FIN !



This took a LONG time to tab out, so be grateful. :)

Also, if anyone figures out the solo, i'd be most thankful 
if you mailed it to me, Oldman_Happa@hotmail.com
comments
We did not receive enough feedback on this tab! Please rate:
print report bad tab
1 2 3 4 5
I want to post or [tab]
guest
You may want to rate the tab now too:
select rating
Please do not post tabs as comments. Select "correction" instead!